PrimaNota.ru - самый крупный в мире бесплатный архив песенных текстов, аккордов, табулатур и нот


Wasted Youth - Good Day For A Hanging - таба, бас-таба, видео

Регистрация Запомнить меня
Войти через:  Facebook Google Twitter Vk Yandex Mail.ru

Wasted Youth - Good Day For A Hanging - таба, бас-таба, видео

Печатать
Просмотров: 97
Уроки эстрадного вокала в Санкт-Петербурге
-------------------------------------------------------------------------------
                     GOOD DAY FOR A HANGING - Wasted Youth
-------------------------------------------------------------------------------
Tabbed by: PCTR
E-mail: peccator93@gmail.com

Tuning: standard (however the original record is about 33 cents flat)

INTRO
e|-----|---------|-----|--------|-----|--------|---|
B|-----|---------|-----|--------|-----|--------|---|
G|-----|---------|-----|--------|-----|--------|---|
D|-----|---------|-----|--------|-----|--------|-9-|
A|-2---|---------|-2---|-----2--|-2---|----7-7-|-7-|
E|-0-r-|---0-0-0-|-0-r-|---0-0--|-0-r-|---0----|---|


RIFF 1
e|------------------------|------------------------|
B|------------------------|------------------------|
G|------------------------|------------------------|
D|----2----3---2----3---2-|----2---3---5---3-------|
A|----2----3---2----3---2-|----2---3---5---3-------|
E|-0-----0--------0-------|-0------------------0-0-|


CHORUS
e|--------------------|----------------------------|
B|--------------------|----------------------------|
G|--------------------|----------------------------|
D|-4------------------|----------------3-----------|
A|-2------------------|-3--------------1---4---3---|
E|--------------------|-1--1-1-1-1-1-1-----2---1---|

e|------------------------|------------------------|
B|------------------------|------------------------|
G|------------------------|------------------------|
D|----2----3---2----3---2-|----2---3---5---3-------|
A|----2----3---2----3---2-|----2---3---5---3-------|
E|-0-----0--------0-------|-0------------------0-0-|

e|--------------------|----------------------------|
B|--------------------|----------------------------|
G|--------------------|----------------------------|
D|-4------------------|----------------3-----------|
A|-2------------------|-3--------------1---4---3---|
E|--------------------|-1--1-1-1-1-1-1---r-2-r-1-r-|
                           PM_________

BRIDGE
e|-------------------------------|
B|-------------------------------|
G|----9-9-9-9-9-9-9--------------|
D|----9-9-9-9-9-9-9--------------|
A|-------------------------------|
E|-0-----------------0-0-0-0-0-0-|


RE-INTRO
e|----------|----------|---------|
B|----------|----------|---------|
G|----------|----------|---------|
D|----------|----------|-9-------|
A|-2--------|------7-7-|-7-------|
E|-0-r------|----0-----|---------|


SLOW PART      |v| I'm not sure about this chord
e|----------------------|------------------------|
B|----------------------|------------------------|
G|------9----9--7-------|------------------------|
D|------9----9--9----5L-|-L--5--5----------------|
A|-------------------3L-|-L--3--3----3-2-1-------|
E|-0--------------------|------------------3-2-1-|
                                     PM_________

BREAK
e|-------------------------------|
B|-------------------------------|
G|-------------------------------|
D|-------------------------------|
A|-------------------3-2-1-------|
E|-0----------------0------3-2-1-|
                    PM__________

RIFF 2
e|----------------------------------|-----------------------------------|
B|----------------------------------|-----------------------------------|
G|----------------------------------|-----------------------------------|
D|----------------------------------|-----------------------------------|
A|-2----8---7---5-2----8---7---5h6p-|-5h6-----8---7-----5-8-8-8-8-8-7-5-|
E|-0--0-6-0-5-0-3-0--0-6-0-5-0------|-----0-0-6-0-5-0-0-3-6-6-6-6-6-5-3-|


OUTRO
e|---------------|
B|---------------|
G|---------------|
D|---------------|
A|--8--7--5--2---|
E|-06--5--3--0-r-|


PLAYING ORDER
 INTRO
 RIFF1 x6 (2x riff, 4x vocals)
 CHORUS
 RIFF1 X4
 CHORUS
 BRIDGE X8
 RE-INTRO
 RIFF1 x6 (2x riff, 4x vocals)
 CHORUS
 BRIDGE X8
 SLOW PART X12 (4X vocals, 4x solo, 4x vocals)
 BREAK x4 (after that there's a long powerchord in E)
 RIFF 2 X10 (2x riff, 6x solo, 2x vocals)
 OUTRO


************************************

| h   hammer-on
| p   pull-off
| PM  palm mute
| L   tied note
| r   rest

************************************
Добавлено: 07.11.2013
Другие материалы по этой песне:

Страница создана 19.07.2013
http://primanota.ru/wasted-youth/good-day-for-a-hanging-chords.htm
Привет, Гость.
Предлагаем пройти революционный курс по гитаре.
Подарок от PrimaNota.Ru, забирай!