PrimaNota.ru - самый крупный в мире бесплатный архив песенных текстов, аккордов, табулатур и нот


Wasp - The Titanic Overture - текст песни, таба, видео

Регистрация Запомнить меня
Войти через:  Facebook Google Twitter Vk Yandex Mail.ru

Wasp - The Titanic Overture - текст песни, таба, видео

Печатать
Просмотров: 441
Chords:
 C#m  B  Esus2 C#m/A
E|-4-|-2-|--7--|-----|
B|-5-|-4-|--7--|-----|
G|-6-|-4-|--9--|--6--|
D|-6-|-4-|--9--|--7--|
A|-4-|-2-|--7--|--4--|
E|---|---|--0--|-----|


Intro (2x)
C#m
E|----------------------------------4-----------|
B|--------5-----4h5-----7-----5--4-----4--5-----|
G|-----6-----6-------6-----6-----------------6--|
D|----------------------------------------------|
A|--4-------------------------------------------|
E|----------------------------------------------|

C#m            Esus2            B
I look at my face in the mirror 
                 C#m
And I don't understand
                               Esus2               B 
Don't feel like a boy and it's not getting clearer 
                            C#m
But I don't feel like a man 

C#m Esus2 B x4

C#m C#m/A 14x

B C#m Esus2 x4

E|--------------------------------------------------------------------------------------|
B|--------------------------------------------------------------------------------------|
G|-9-0-9-9-0-9-9-0-9-9-0-9-9-0-11p9p7h9-11-0-11-11-0-11-11-0-11-11-0-11-11-0-12p11p9h11-|
D|--------------------------------------------------------------------------------------|
A|--------------------------------------------------------------------------------------|
E|--------------------------------------------------------------------------------------|

E|--------------------------------------------------|
B|--------------------------------------------------|
G|-12-0-12-12-0-12-12-0-12-12-0-12-12-0-14p12p11h12-|
D|--------------------------------------------------|
A|--------------------------------------------------|
E|--------------------------------------------------|

E|-------------------------------------------|
B|-------------------------------------------|
G|-14-0-14-14-0-14-14-0-14-14-0-14-14-0-14-0-|
D|-------------------------------------------|
A|-------------------------------------------|
E|-------------------------------------------| x2


  Esus2 C#m B C#m x3

Esus2 Esus2

C#m
E|----------------------------------4-----------|
B|--------5-----4h5-----7-----5--4-----4--5-----|
G|-----6-----6-------6-----6-----------------6--|
D|----------------------------------------------|
A|--4-------------------------------------------|
E|----------------------------------------------| x2

C#m                        Esus2
I'm seventeen and I'm somebody's son 
      B                       C#m
My dad don't know where I stand cause when he looks at me 
Esus2                         B
He don't like what he sees 
                      C#m
He don't know what I am
Добавлено: 08.04.2014
Другие материалы по этой песне:
  • Аккорды и текст

Страница создана 29.12.2013
http://primanota.ru/wasp/the-titanic-overture-chords.htm
Привет, Гость.
Предлагаем пройти революционный курс по гитаре.
Подарок от PrimaNota.Ru, забирай!