PrimaNota.ru - самый крупный в мире бесплатный архив песенных текстов, аккордов, табулатур и нот


Wasp - The Neutron Bomber - аккорды и текст, таба, видео

Регистрация Запомнить меня
Войти через:  Facebook Google Twitter Vk Yandex Mail.ru

Wasp - The Neutron Bomber - аккорды и текст, таба, видео

Печатать
Просмотров: 186
Уроки эстрадного вокала в Санкт-Петербурге
The Neutron Bomber
Wasp
Band: W.A.S.P.
Song: The Neutron Bomber
Album: The Headless Children (1989)
Tabbed By Dave Siddons

Intro
|-------------------------------------------|
|-------------------------------------------|
|-------------------------------------------|
|-------------------------5--4--2--4--5--7--|
|-2-2-2-2-----2-2-2-2-----3--2--0--2--3--5--|
|-0-0-0-0-----0-0-0-0-----------------------|

Bridge/Chorus 
|-------------------------------------|
|-------------------------------------|
|-------------------------------------|
|-------------2-----5--4--2--4--5--7--|
|-2-----5-----0-----3--2--0--2--3--5--|
|-0-----3-----------------------------|

Verse
|---------------------------------|
|---------------------------------|
|---------------------------------|
|---------------------------------|
|-7-7-7-7-7-7-7-7-7-7-7-7-7-7-7-7-|
|---------------------------------|

|---------------------------------|
|---------------------------------|
|---------------------------------|
|---------------------------------|
|-5-5-5-5-5-5-5-5-3-3-3-3-5-5-5-5-|
|---------------------------------|

Fill After Chorus
|--------------------------|-------------|
|--------------------------|-------------|
|--------------------------|-------------|
|--------------------------|-------------|
|-10-9-7-9-7-5-7-5-4-5-4-2-|-2-----------|
|--------------------------|-0-----------|

Solo
|---------------------------------|
|---------------------------------|
|---------------------------------|
|---------------------------------|
|---------------------------------|
|-2-2-2-2-2-2-2-2-2-2-2-2-2-2-2-2-|

Ending
|--------------------------|
|--------------------------|
|--------------------------|
|-5-----7-----12--9--7--9--|
|-3-----5-----10--7--5--7--|
|--------------------------|
Добавлено: 10.10.2014
Другие материалы по этой песне:
  • Аккорды и текст

Страница создана 03.06.2012
http://primanota.ru/wasp/the-neutron-bomber-chords.htm
Привет, Гость.
Предлагаем пройти революционный курс по гитаре.
Подарок от PrimaNota.Ru, забирай!