PrimaNota.ru - самый крупный в мире бесплатный архив песенных текстов, аккордов, табулатур и нот


Wasp - Keep Holding on - текст песни, таба, видео

Регистрация Запомнить меня
Войти через:  Facebook Google Twitter Vk Yandex Mail.ru

Wasp - Keep Holding on - текст песни, таба, видео

Печатать
Просмотров: 1172
                                                            \m/         W.A.S.P.       \m/

                                                                ♥ Keep Holding On ♥

                                                              Tuning.... 1/2 step down

                                         (Skip the first few lines of the song, it's just piano)
                
                        
                                                              v         v  ^          ^  v  ^
                Use this chord progression ------>           _|        _|-_|         _|-_|-_|





          D     (2x)         Bm  (2x)        D   (2x)                 Bm  (2x)  
                      
|---------2------------------2---------------2-------------------------2--------------|
|---------3------------------3---------------3-------------------------3--------------|
|---------2------------------4---------------2-------------------------4--------------|
|---------0------------------4---------------0-------------------------4--------------|
|---------x------------------2---------------x-------------------------2--------------|
|---------x------------------x---------------x-------------------------x--------------|

     Been so long/would you know me? / Whose holding you. Whose gonna hold me?

          Em  (1x)     A   (3x)

|---------x------------0------------------|
|---------x------------2------------------|
|---------x------------2------------------|
|---------2------------2------------------|
|---------2------------0------------------|
|---------0------------x------------------|
 
  If You want me Then I'll be your man




Chorus :



|-----------------------------------------------------------|
|------------      --------------------------     ----------|
|-----------   D    ------------------------   Bm   --------|
|-----------  (2x)   -----------------------  (2x)  --------|
|------------       -------------------------     ----------|
|-----------------------------------------------------------|

   And I keep holding on, holding on 'till you come back to me



|-------------------------------------------------------|
|---------   -----------------------------     ---------|
|--------  D   ---------------------------  Bm   -------|
|-------- (2x) --------------------------- (2x) --------|
|---------    -----------------------------    ---------|
|-------------------------------------------------------|

And I keep holding on, holding on 'till you run to me 

        G(1x)

|-------3----------------------------------------------------|
|-------3----------   ------  -----------------    ----------|
|-------0--------   A  ---  D   --------------  Em  ---------|
|-------0-------- (1x) --- (1x) -------------  (1x)  --------|
|-------2---------    ----   ------------------     ---------|
|-------3----------------------------------------------------|

Can you take me to heaven / Show me the way cuz I'm no angel


|---------------------------------------------|
|----   -----------    ---------------   -----|
|---  G  ---------   A   ------------  Bm  ---|
|--  (1x) --------  (1x)  ----------- (2x)  --|
|----     ----------    ---------------   ----|
|---------------------------------------------|

I am lost and, can I hold you one more time?



|---------------------------------------------|
|-----    ---------    ----------------- -----|
|----  Em   ------  G   ---------------  D ---|
|---- (1x)  ------ (1x)  -------------- (2x)--|
|-----    ---------     ----------------   ---|
|---------------------------------------------|
I Guess me holding you, was holding you down.




Bridge:

|--------------------------------------------------|
|-----  ---------   ---------  --------------   ---|
|----  Em -------  A  ----- Em -----------  A   ---|
|---- (1x) ------ (1x) --- (2x) ---------- (1x)  --|
|------  ---------  -------   ---------------   ---|
|--------------------------------------------------|

Will I have your memory or will your memory have me?



|-------------------------------------------------------------|
|-------    ---------  -------  ------------  ----------- ----|
|------  Em   -----  A   ----  Em  --------  A   ------- Em  -|
|------ (1x)  ----- (1x)  --- (1x)  ------- (1x) ------- (1x)-|
|--------   ---------   ------   ------------  -----------   -|
|-------------------------------------------------------------|

I don't know / Only time knows if I'll ever know peace of mind 



|---------------------------------------------------------|
|----   --------------   ------------------  -------- ----|
|--- Bm  ------------  G   --------------- Em  ----  A ---|
|-- (2x)  ----------- (2x)  -------------- (1x) --- (1x) -|
|-----   --------------   ------------------  -------  ---|
|---------------------------------------------------------|

Only time knows if your mine / Knows if your mine




Chorus:


|-----------------------------------------------------------|
|------------      --------------------------     ----------|
|-----------   D    ------------------------   Bm   --------|
|-----------  (2x)   -----------------------  (2x)  --------|
|------------       -------------------------     ----------|
|-----------------------------------------------------------|

   And I keep holding on, holding on 'till you come back to me


|-------------------------------------------------------|
|---------   -----------------------------     ---------|
|--------  D   ---------------------------  Bm   -------|
|-------- (2x) --------------------------- (2x) --------|
|---------    -----------------------------    ---------|
|-------------------------------------------------------|

And I keep holding on, holding on 'till you run to me 

|---------------------------------------------------------|
|--------  -------------------- -------------------  -----|
|-------  G  -----------------  D  --------------- Em  ---|
|------- (1x) ---------------- (1x) -------------  (1x) --|
|--------  --------------------- ------------------   ----|
|---------------------------------------------------------|

All I can hold is a shadow of a heart thats gone and left me shattered




|---------------------------------------------|
|----   -----------    ---------------   -----|
|---  G  ---------   A   ------------  Bm  ---|
|--  (1x) --------  (1x)  ----------- (2x)  --|
|----     ----------    ---------------   ----|
|---------------------------------------------|

I am lost and, can I hold you one more time?


|---------------------------------------------|
|-----    ---------    ----------------- -----|
|----  Em   ------  G   ---------------  D ---|
|---- (1x)  ------ (1x)  -------------- (2x)--|
|-----    ---------     ----------------   ---|
|---------------------------------------------|
I Guess me holding you, was holding you down.

^^^ Repeat this 3 times
                                                            
                                  
|----------------------------------2~ ---------|
|-----    ---------    ------------3~ ---------|
|----  Em   ------  G   -----------2~ ---------|
|---- (1x)  ------ (1x)  ----------0~ ---------|
|-----    ---------     -----------x~ ---------|
|----------------------------------x~ ---------|



End on this ^^^ but instead  of using the pattern for the D just end on it :)




Remember everyone...W.A.S.P. is the most amazing band ever...
Support them by going to their super amazing tour next year! :)
I'll be going to every show within a state radius...♥
Добавлено: 01.09.2013
Другие материалы по этой песне:
  • Аккорды и текст

Страница создана 11.04.2012
http://primanota.ru/wasp/keep-holding-on-chords.htm
Привет, Гость.
Предлагаем пройти революционный курс по гитаре.
Подарок от PrimaNota.Ru, забирай!