PrimaNota.ru - самый крупный в мире бесплатный архив песенных текстов, аккордов, табулатур и нот


Wasp - Animal -f*ck Like A Beast - таба, видео

Регистрация Запомнить меня
Войти через:  Facebook Google Twitter Vk Yandex Mail.ru

Wasp - Animal -f*ck Like A Beast - таба, видео

Печатать
Просмотров: 265
Animal -Fuck like a beast-
As performed @ the First blood last cuts album by WASP


This is just the way I intend to play it. sounds great.

Just play this with some heavy distortion (just as every WASP song)


WASP uses BC Rich guitars
I got myself one maybe thats why it sounds so damn good!


Intro:
E|------------------------------------------------------|
B|------------------------------------------------------|
G|-------------------5-----------2-----------------2----|
D|---5-4-2-----------5-----------2-----------5-----2----|
A|---5-4-2-----------3-----------0-----------5-----0----|
E|---3-2-0-0-0-0-0-0---0-0-0-0-0---0-0-0-0-0-3-2-3------|

just palm mute and let the powerchords ring loud :)


Verse:
E|---------------------------------------------------------------------------------|
B|---------------------------------------------------------------------------------|
G|-------------------5-----------2-----------------2-----------------5-----------2-|
D|---5-4-2-----------5-----------2-----------5-----2-----2-----------5-----------2-|
A|---5-4-2-----------3-----------0-----------5-----0-----2-----------3-----------0-|
E|---3-2-0-0-0-0-0-0---0-0-0-0-0---0-0-0-0-0-3-2-3---3-2-0-0-0-0-0-0---0-0-0-0-0---|


E|---------------------------------------------------------------------------------|
B|---------------------------------------------------------------------------------|
G|-------------------2-----------------5-----------2-----------------2-------------|
D|-------------5-----2-----2-----------5-----------2-----------5-----2-----2-------|
A|-------------5-----0-----2-----------3-----------0-----------5-----0-----2-------|
E|---0-0-0-0-0-3-2-3---3-2-0-0-0-0-0-0---0-0-0-0-0---0-0-0-0-0-3-2-3---3-2-0-0-0-0-|


E|-------------------------|
B|-------------------------|
G|-------5-----------2-----|
D|-------5-----------2-----|
A|-------3-----------0-----|
E|---0-0---0-0-0-0-0-------|


CHORUS:
E|--------------------------------------------------|
B|--------------------------------------------------|
G|-------------------------------7-------7----------|
D|-------------------2--2--2--5--7--7----5--7--7----|
A|-------------------2--2--2--5--5--7----5--5--7----|
E|---3-2-0-3-2-0-3-2-0--0--0--3-----5----3-----5----|

Play this 4 times

Chorus:
E|-----------------------------------------------------|
B|-----------------------------------------------------|
G|-------------------------------7-------------7-------|
D|-------------------2--2--2--5--7--7----7--5--7--7----|
A|-------------------2--2--2--5--5--7----7--5--5--7----|
E|---3-2-0-3-2-0-3-2-0--0--0--3-----5----5--3-----5----|

Play this 4 times


Bridge:
E|-----------------------------------|
B|-----------------------------------|
G|---------------7-----4--4--4--4----|
D|---2--2--7--5--7--7--4--4--4--4----|
A|---2--2--7--5--5--7--2--2--2--2----|
E|---0--0--5--3-----5----------------|



during solo:
E|-----------------------------|
B|-----------------------------|
G|---------7-----------7-------|
D|---2--5--7--7--2--5--7--7----|
A|---2--5--5--7--2--5--5--7----|
E|---0--3-----5--0--3-----5----|


Chorus:
E|----------------------------------------------------------|
B|----------------------------------------------------------|
G|---------7-----------7-----------7-----------7------------|
D|---2--5--7--7--2--5--7--7--2--5--7--7--2--5--7--7--2-2----|
A|---2--5--5--7--2--5--5--7--2--5--5--7--2--5--5--7--2-2----|
E|---0--3-----5--0--3-----5--0--3-----5--0--3-----5--0-0----|



this is some realy heavy shit by WASP!
Enjoy :)



Lyrix:

I got pictures of naked ladies 
Lying on their beds 
I whiff that smell and sweet convulsion 
Starts a-Swelling inside my head 
I'm making artificial lovers for free 
I start to howl I'm in heat 
I moan and growl and the hunt drives me crazy 
I fuck like a Beast 

I come round, round i come feel your love 
Tie you down, down i come steal your love 
I come round, round i come feel your love 
Tie you down, down i come steal your love 

I'm on the prowl and i watch you closely 
I lie waiting for you 
I'm the wolf with the sheepsskins clothing 
I lick my chops and your tasting good 
I do whatever i want to, to ya 
I'll nail your ass to the sheets 
A pelvic thrust and the sweat starts to sting ya 
I fuck like a beast 

I come round, round i come feel your love 
Tie you down, down i come steal your love 
I come round, round i come feel your love 
Tie you down, down i come steal your love 

Come ride, savage seduction 
Ride, ride, ride
Добавлено: 09.07.2013
Вам также может быть интересно:
Другие материалы по этой песне:
  • Аккорды и текст

Страница создана 09.07.2013
http://primanota.ru/wasp/animal-fck-like-a-beast-chords.htm
Привет, Гость.
Предлагаем пройти революционный курс по гитаре.
Подарок от PrimaNota.Ru, забирай!