PrimaNota.ru - самый крупный в мире бесплатный архив песенных текстов, аккордов, табулатур и нот


Washya - Wrath Of The Village People - таба

Регистрация Запомнить меня
Войти через:  Facebook Google Twitter Vk Yandex Mail.ru

Washya - Wrath Of The Village People - таба

Печатать
Просмотров: 42
-----------------------------------------------------------------------------
               Wrath Of The Village People - Washya
-----------------------------------------------------------------------------
Tuning: Standard (EBGDAE)
Intro
E|-----------------|
B|---------3-------|
G|-----0-------0---|
D|---4---4---4---4-|
A|-2---------------|
E|-----------------|x16

Part 2
E|-----------------------------------------|
B|-----------------------------------------|
G|----------2------------------------------|
D|-----------------------/8-7-5------------|
A|----4-2h4---5p4p2-4-----------7-/5-4-2-2-|
E|-00h2-------------2-00-----------------0-|
PM **                 ** 

Main Riff/Chorus (BRUTAL RIFF!)
E|-----------------------------------------------------------|
B|-----------------------------------------------------------|
G|-----------------------------------------------------------|
D|----8---7-------5------4\3---9\8-5/7---------------8\7-----|
A|----6---5-5/8---3-33/6-2\1---7\6-3/5-7/8---3/4---5-6\5-3-2-|
E|-00---0---3/6-0---11/4-----0---------5/6-0-1/2-0-3-----1-0-|
PM **   *       *            *             *     *         

Verses
E|---------0---------------------------0-----2-|
B|-----3-----3---------------------------3---3-|
G|-------0-----0-----0---0-----------2-----2-2-|
D|---------------------2---2-------2-----------|
A|---2-------------3---------3---4-------------|
E|-0-------------1-------------0---------------|
PM *             *             *              

Guitar Solo
E|-10----10h13p10----10h13p10----------13p10----10h13p10h13p10-------------|
B|----13----------13----------13p12p10-------13----------------13b-11h13b~-|
G|-------------------------------------------------------------------------|
D|-------------------------------------------------------------------------|
A|-------------------------------------------------------------------------|
E|-------------------------------------------------------------------------|

E|-----------------------------13p12----13p12----13p12----13p12p10-------|
B|-13h15p13h15p13h15p13h15~-15-------15-------15-------15----------13h15-|
G|-----------------------------------------------------------------------|
D|-----------------------------------------------------------------------|
A|-----------------------------------------------------------------------|
E|-----------------------------------------------------------------------|

E|---------------------------------------------------------|
B|----13h15----13h15----13h15------------------------------|
G|-14-------14-------14-------14p12----12------------------|
D|----------------------------------14----14p12------------|
A|----------------------------------------------14p12------|
E|----------------------------------------------------12~--|

E|-------------------------------------------------------------------------|
B|-------------------------------------------------------------13h16p13----|
G|----------------------------------------------------------14----------12-|
D|-------------------------10h13p10-------13h16p13----13h15----------------|
A|----10h13p10----10h13p12----------12h14----------14----------------------|
E|-12----------12----------------------------------------------------------|

E|----------------------13h16p13----13h16p13h16p13h16p13h17-18~-|
B|-11h14p11----11h14h15----------15-----------------------------|
G|----------12--------------------------------------------------|
D|--------------------------------------------------------------|
A|--------------------------------------------------------------|
E|--------------------------------------------------------------|

E|---------------------------------------------------------------------|
B|--------------------------------------------------12-------12----15~-|
G|-----12----------------12----------------12----11----12-11----12-----|
D|-/11----12----12----11----12----12----11----12-----------------------|
A|-----------11----12----------11----12--------------------------------|
E|---------------------------------------------------------------------|

E|----8-------13-------18-------20----20----21~-|
B|-/7---10/12----15/17----20p18----18----18-----|
G|----------------------------------------------|
D|----------------------------------------------|
A|----------------------------------------------|
E|----------------------------------------------|
Добавлено: 28.10.2013
Другие материалы по этой песне:
  • Аккорды и текст

Страница создана 28.10.2013
http://primanota.ru/washya/wrath-of-the-village-people-chords.htm
Привет, Гость.
Предлагаем пройти революционный курс по гитаре.
Подарок от PrimaNota.Ru, забирай!