PrimaNota.ru - самый крупный в мире бесплатный архив песенных текстов, аккордов, табулатур и нот


Washya - Under Pressure - таба, видео

Регистрация Запомнить меня
Войти через:  Facebook Google Twitter Vk Yandex Mail.ru

Washya - Under Pressure - таба, видео

Печатать
Просмотров: 71
Уроки эстрадного вокала в Санкт-Петербурге
-----------------------------------------------------------------------------
                     Under Pressure - Washya
-----------------------------------------------------------------------------
Tuning: Drop D (DADGBE)
Intro
E|---------------------------------|   |-----------------------|
B|---------------------------------|   |-----------------------|
G|---------------------------------|   |-----------------------|
D|-------555-------333-------555/7-|   |-----------------------|
A|-6-5-0-333-6-5-0-111-6-5-0-333/5-|   |-5h7-5h7-5h7-5h7-5h8*~-|
D|-6-5-0-----6-5-0-----6-5-0-------|x2 |-----------------------|

Verses
E|-----------------------------------------------------------|
B|-----------------------------------------------------------|
G|-----------------------------------------------------------|
D|----------------------------------8*-------8*--------------|
A|-6-00-0-0-000-6-00-0-0-000--00-66----00-66----6-00-0-0-000-|
D|-6-00-0-0-000-6-00-0-0-000--00-66----00-66----6-00-0-0-000-|
PM   ** * * ***   ** * * ***  **       **         ** * * *** 

Chorus
E|------------------------------------------------------------|
B|------------------------------------------------------------|
G|------------------------------------------------------------|
D|----7----7----7---------------------------8----8----8-8-888-|
A|-00-5-00-5-00-5-00-0-0-000-66-6---666-----6----6----6-6-666-|
D|-00---00---00---00-0-0-000-66-6-6-666--66---66---66---------|
PM **   **   **   ** * * ***      *      **   **   **  

E|----------------------------------------------------------------------|
B|----------------------------------------------------------------------|
G|----------------------------------------------------------------------|
D|----------------------------4*----4*-------------------------2*----3*-|
A|-2-0-22-2-2-222--2-0-22-2-2----22----6\5-00-0-0-000-//\\-11-----11----|
D|-2-0-22-2-2-222--2-0-22-2-2----22----6\5-00-0-0-000-//\\-11-----11----|
PM * * ** * * ***  * * ** * *    **        ** * * ***        

E|-----------------------|
B|-----------------------|
G|----------3*-----------|
D|----2*-----------------|
A|-11----11----1-1h2p1-0-|
D|-11----11----1-1h2p1-0-|
Добавлено: 10.11.2013
Другие материалы по этой песне:
  • Аккорды и текст

Страница создана 10.11.2013
http://primanota.ru/washya/under-pressure-chords.htm
Привет, Гость.
Предлагаем пройти революционный курс по гитаре.
Подарок от PrimaNota.Ru, забирай!