PrimaNota.ru - самый крупный в мире бесплатный архив песенных текстов, аккордов, табулатур и нот


Washya - Ultimate Kombat - таба, видео

Регистрация Запомнить меня
Войти через:  Facebook Google Twitter Vk Yandex Mail.ru

Washya - Ultimate Kombat - таба, видео

Печатать
Просмотров: 43
-------------------------------------------------------------------------------
          Ultimate Kombat - Washya
-------------------------------------------------------------------------------
Tuning: Standard (ebgDAE)
Intro
e|---------------------------------------------------------------------|
b|---------------------------------------------------------------------|
g|----------------------------6-4---------------------3-6-5-3----------|
D|-------------6-4----------------6-4---------------5------------------|
A|-----------------6-4----------------6-5-4-----3-6--------------------|
E|-22222222222---------6-5-3----------------6-3---------------0000-000-|
PM ***********                                                **** *** 

Verses
e|---------------------------------------------------|
b|---------------------------------------------------|
g|---------------------------------------------------|
D|---------------------------------------------------|
A|---------------------------------------------------|
E|-0000-0-000-0-0000-0-000-0-0000-0-000-0-0000-0-000-|
PM **** * *** * **** * *** * **** * *** * **** * *** 

Verse pt 2
e|-------------------------|
b|-------------------------|
g|-------------------------|
D|-5-3-2-----8p7---7-------|
A|-5-3-2-4-2-----9---9-8-7-|
E|-------2-0---------------|

Chorus
e|------------------------------|
b|------------------------------|
g|------------------------------|
D|------------------------------|
A|-4445242524234544452425242345-|
E|-2223020302012322230203020123-|
Добавлено: 27.08.2013
Другие материалы по этой песне:
  • Аккорды и текст

Страница создана 27.08.2013
http://primanota.ru/washya/ultimate-kombat-chords.htm
Привет, Гость.
Предлагаем пройти революционный курс по гитаре.
Подарок от PrimaNota.Ru, забирай!