PrimaNota.ru - самый крупный в мире бесплатный архив песенных текстов, аккордов, табулатур и нот


Washya - Thrill Me - таба, видео

Регистрация Запомнить меня
Войти через:  Facebook Google Twitter Vk Yandex Mail.ru

Washya - Thrill Me - таба, видео

Печатать
Просмотров: 56
-----------------------------------------------------------------------------
              Thrill Me - Washya
-----------------------------------------------------------------------------
Tuning: Drop D (EBGDAD)
Intro (Heavy Palm mute)
E|------------------------------------------------------------|
B|------------------------------------------------------------|
G|------------------------------------------------------------|
D|--------------------------------7777-----------4444-444-----|
A|-00000000000-000-00-0000-00-000-5555-5555-2222-2222-222-1-3-|
D|-00000000000-000-00-0000-00-000------5555-2222----------1-3-|
PM *********** *** ** **** ** *** 

Verses (Heavy Palm Mute)
E|------------------------------|
B|------------------------------|
G|------------------------------|
D|------------------------------|
A|-0-5-3-0-3-5-3-0-0-3-0-666\55-|
D|-0-5-3-0-3-5-3-0-0-3-0-666\55-|
PM * * * * * * * * * * * 

Chorus
E|-------------------------------------------------------------------|
B|-------------------------------------------------------------------|
G|-------------------------------------------------------------------|
D|-------------------------------------------7777777-----------------|
A|------5555555555555/6666666666\22222222222-5555555-3333333-1111111-|
D|-//xx-5555555555555/6666666666\22222222222---------3333333-1111111-|
(Pickslide)

Solo
E|------------------------------------------------------9-10p8p7h10p8p7h10~-|
B|-------------------------------8-7---8-7---8-7-10-8-7---------------------|
G|---------------------9-7---7-9-----9-----9--------------------------------|
D|-----7---9-7---8-7-8-----9------------------------------------------------|
A|-7-9---9-----9------------------------------------------------------------|
D|--------------------------------------------------------------------------|

Verses (Heavy Palm Mute)
E|------------------------------|
B|------------------------------|
G|------------------------------|
D|------------------------------|
A|-0-5-3-0-3-5-3-0-0-3-0-666\55-|
D|-0-5-3-0-3-5-3-0-0-3-0-666\55-|
PM * * * * * * * * * * * 

Chorus
E|-------------------------------------------------------------------|
B|-------------------------------------------------------------------|
G|-------------------------------------------------------------------|
D|-------------------------------------------7777777-----------------|
A|------5555555555555/6666666666\22222222222-5555555-3333333-1111111-|
D|-//xx-5555555555555/6666666666\22222222222---------3333333-1111111-|
(Pickslide)
Добавлено: 11.10.2013
Другие материалы по этой песне:
  • Аккорды и текст

Страница создана 11.10.2013
http://primanota.ru/washya/thrill-me-chords.htm
Привет, Гость.
Предлагаем пройти революционный курс по гитаре.
Подарок от PrimaNota.Ru, забирай!