PrimaNota.ru - самый крупный в мире бесплатный архив песенных текстов, аккордов, табулатур и нот


Washya - The Gunshot Of Your Enemy - таба, видео

Регистрация Запомнить меня
Войти через:  Facebook Google Twitter Vk Yandex Mail.ru

Washya - The Gunshot Of Your Enemy - таба, видео

Печатать
Просмотров: 47
-------------------------------------------------------------------------------
  Gunshot Of Your Enemy - Washya
-------------------------------------------------------------------------------
Tuning: Drop D (DADGBE)
Intro
E|----------------------------------------|
B|----------------------------------------|
G|----------------------------------------|
D|----------------------------------------|
A|----------------------------------------|
D|-1-00-1-00-1-0-1-0-1-00-1-00-1-00-1-0-1-|x3
PM * ** * ** * * * * * ** * ** * ** * * * 

Intro 2
E|--------------------------------------------|
B|--------------------------------------------|
G|----7---10\9---3---6\5----7/1212121212\1010-|
D|--------------------------------------------|
A|----5---8-\7---1---4\3----5/1010101010\8-8--|
D|-00---0------0---0------0-------------------|
PM **   *      *   *      * 

Verses
E|---------------------------------|
B|---------------------------------|
G|-10------5/7------5/9---12\9-6/7-|
D|---------------------------------|
A|-8-------3/5------3/7---10\7-4/5-|
D|----0000-----0000-----0----------|
PM    ****     ****     * 

Chorus
E|--------------------------------------------------------------------|
B|--------------------------------------------------------------------|
G|---6/7---7\6\4------------666\333---------------6h7p6---------6-----|
D|------------------------------------------------------9p7p6---------|
A|---4/5---5\4\2-2/4--------444\111-11h3-11h4-----------------8---456-|
D|-0-----0-------2/4-444444---------11h3-11h4-444-----------------456-|
PM *     *           ******         ***  ***  ***                 

Ending (cool riff)
E|-----------------------------------------------------------------------|
B|-----------------------------------------------------------------------|
G|------------------------------------------------------------7---3---5\-|
D|------------------------------------------------------------7---3---5\-|
A|---------6-5-3-0-1-3-----------6---5---1/3------123---------5---1---3\-|
D|-0000000-6-5-3-0-1-3-0000000-0---0---0-----0-30-123-0000000---0---0----|
PM *******             ******* *   *   *     * **     *******   *   *
Добавлено: 07.07.2013
Другие материалы по этой песне:
  • Аккорды и текст

Страница создана 07.07.2013
http://primanota.ru/washya/the-gunshot-of-your-enemy-chords.htm
Привет, Гость.
Предлагаем пройти революционный курс по гитаре.
Подарок от PrimaNota.Ru, забирай!