PrimaNota.ru - самый крупный в мире бесплатный архив песенных текстов, аккордов, табулатур и нот


Washya - Synthesiser - таба, видео

Регистрация Запомнить меня
Войти через:  Facebook Google Twitter Vk Yandex Mail.ru

Washya - Synthesiser - таба, видео

Печатать
Просмотров: 70
Уроки эстрадного вокала в Санкт-Петербурге
-----------------------------------------------------------------------------
                  Synthesiser Solo - Washya
-----------------------------------------------------------------------------
Tuning: Standard (EBGDAE)
Start (play fast throughout)
E|-------------------3p2--------------------------------------------|
B|-----------------2-----3------------------------------------------|
G|-5-5b-3---3b---3---------2b-2p0h2p0h2p0h2p0h2h4p2h4p2h4p2h4p2-6b~-|
D|--------5----5----------------------------------------------------|
A|------------------------------------------------------------------|
E|------------------------------------------------------------------|

E|-----------7p6-------------7p6-----------------------------5b-5b-|
B|-6b-8-6b-8-----8-6b-8-6b-8-----7p6-----------------------3-5b-5b-|
G|-6b---6b---------6b---6b-----------7---------------5p4p2---------|
D|-------------------------------------6p5p3---3h5h6---------------|
A|-------------------------------------------5---------------------|
E|-----------------------------------------------------------------|

E|-5h8p5---5h8p5-------------------8p7-----8p7-----8p7/10b-12b-|
B|-------8-------8---------------9-----7h9-----7h9-------------|
G|-----------------9p7p6---7p6h7-------------------------------|
D|-----------------------8-------------------------------------|
A|-------------------------------------------------------------|
E|-------------------------------------------------------------|

E|-12h15p12----------12h15p12----------12h15p12----------------------12~--|
B|----------14----14----------14----14----------15p12h15----------15------|
G|-------------13----------------13----------------------14p12h14---------|
D|------------------------------------------------------------------------|
A|------------------------------------------------------------------------|
E|------------------------------------------------------------------------|

E|-12h15p12h15p12/14h17p14h17p14/16h19p16h19-20b-20b-20b-|
B|-------------------------------------------------------|
G|-------------------------------------------------------|
D|-------------------------------------------------------|
A|-------------------------------------------------------|
E|-------------------------------------------------------|

E|-------------------------------------------------------------------------|
B|-------------------------------------------------------------------------|
G|-------------------------------------------------------------17p12h15h17-|
D|----------------------------------17p12h15h17----------12h15-------------|
A|----------12h15h17----------12h15-------------12h15h17-------------------|
E|-12h15h17----------12h15h17----------------------------------------------|
PM *********************************************

E|-------------------------------------12h15h17-17b171717p12h18181818p12b-|
B|-------17p12h15h17----------12h15h17------------------------------------|
G|-12h15-------------12h15h17---------------------------------------------|
D|------------------------------------------------------------------------|
A|------------------------------------------------------------------------|
E|------------------------------------------------------------------------|

E|-12h17p12-------12h17p12-------13h18p13-------13h18p13-------13h15-15b~-|
B|-------------14----------13----------------15----------14---------------|
G|----------15----------------14----------16----------------15------------|
D|------------------------------------------------------------------------|
A|------------------------------------------------------------------------|
E|------------------------------------------------------------------------|
 
                                                           (Dump Whammy Bar)
E|-15p14h17p14h15p14h17p14h15p14h17p14h18p14h18p14h18p14/19b-19------|
B|--------------------------------------------------------------18~/-|
G|-------------------------------------------------------------------|
D|-------------------------------------------------------------------|
A|-------------------------------------------------------------------|
E|-------------------------------------------------------------------|
Добавлено: 03.10.2013
Другие материалы по этой песне:
  • Аккорды и текст

Страница создана 03.10.2013
http://primanota.ru/washya/synthesiser-chords.htm
Привет, Гость.
Предлагаем пройти революционный курс по гитаре.
Подарок от PrimaNota.Ru, забирай!