PrimaNota.ru - самый крупный в мире бесплатный архив песенных текстов, аккордов, табулатур и нот


Washya - Sunken Ship - таба, видео

Регистрация Запомнить меня
Войти через:  Facebook Google Twitter Vk Yandex Mail.ru

Washya - Sunken Ship - таба, видео

Печатать
Просмотров: 47
-----------------------------------------------------------------------------
                Sunken Ship - Washya
-----------------------------------------------------------------------------
Tuning: Drop C (DAFCGC)
Intro
D|-----0--------0---------------------|
A|-------3--------3-------------------|
F|---2--------2-----------------------|
C|-0--------0-----------3-----2-----0-|
G|--------------------3-----2-----0---|
C|------------------3-----2-----0-----|x3

Main Riff
D|---------------------------------------------------|
A|---------------------------------------------------|
F|-----------------------------------3---------------|
C|------4-2------4-2------4-2------4-----------------|
G|-/2-5-----/2-5-----/2-5-----/2-5-----3333-000-1111-|
C|-------------------------------------3333-000-1111-|

Verses
D|--------------------------------------------------------------------------|
A|--------------------------------------------------------------------------|
F|--------------------------------------------------------------------------|
C|--------------------------------------------------------------------------|
G|------------------------2-----------------------------2----------33344411-|
C|-00-0000-00-0-0-00-0000-00-0-0-00-0000-00-000-00-0000-00-00-0000-33344411-|
PM ** **** ** * * ** ****  * * * ** **** ** *** ** ****  * ** **** 

Chorus
D|----------------------------------------------------------------|
A|----------------------------------------------------------------|
F|----------------------------------------------------------------|
C|------/5\4~------12p11p9/15p14p12-------------------------------|
G|-2222-------2222------------------121212-999-101010-7777-787530-|
C|-2222-------2222------------------121212-999-101010-7777-787530-|
PM ****       ****                                    **** 

Guitar Solo
D|------------------------------------------------|
A|-------8-7-------7------------------------------|
F|-/9~-9-----9-7-9---9-8-----8-7------------------|
C|-----------------------7-9-----9-8-7---7--------|
G|-------------------------------------9---9-8----|
C|---------------------------------------------7~-|

D|---------------------------15p14p12-----12h15p14p12----12h15p14p12-14b-|
A|--12b~----12----12----14b~-----------14-------------14-------------14b-|
F|-/10b~-12----12----12--------------------------------------------------|
C|-----------------------------------------------------------------------|
G|-----------------------------------------------------------------------|
C|-----------------------------------------------------------------------|

D|-----------------------------------------------------------------|
A|-14bp11h12p11-----11h12p11---------------------------------------|
F|--------------12b----------12p11\9h11p9\7h9p7\5h7p5\4h5p4\2p0h2~-|
C|-----------------------------------------------------------------|
G|-----------------------------------------------------------------|
C|-----------------------------------------------------------------|

D|------21p20p18h21p20p18-------------------------------------|
A|-/18~-------------------21p20p18h21p20p18-------------------|
F|------------------------------------------21p20p18h21p20p18-|
C|------------------------------------------------------------|
G|------------------------------------------------------------|
C|------------------------------------------------------------|

D|---------------------------------------------------------|
A|---------------------------------------------------------|
F|---------------------------------------------------------|
C|-21p20p18h21p20p18---------------------------------------|
G|-------------------21p20p18h21p20p18---------------------|
C|-------------------------------------21p20p18h21p20p18~~-|

Intro
D|-----0--------0---------------------|
A|-------3--------3-------------------|
F|---2--------2-----------------------|
C|-0--------0-----------3-----2-----0-|
G|--------------------3-----2-----0---|
C|------------------3-----2-----0-----|x3

Main Riff
D|---------------------------------------------------|
A|---------------------------------------------------|
F|-----------------------------------3---------------|
C|------4-2------4-2------4-2------4-----------------|
G|-/2-5-----/2-5-----/2-5-----/2-5-----3333-000-1111-|
C|-------------------------------------3333-000-1111-|

Verses
D|--------------------------------------------------------------------------|
A|--------------------------------------------------------------------------|
F|--------------------------------------------------------------------------|
C|--------------------------------------------------------------------------|
G|------------------------2-----------------------------2----------33344411-|
C|-00-0000-00-0-0-00-0000-00-0-0-00-0000-00-000-00-0000-00-00-0000-33344411-|
PM ** **** ** * * ** ****  * * * ** **** ** *** ** ****  * ** **** 


Chorus
D|----------------------------------------------------------------|
A|----------------------------------------------------------------|
F|----------------------------------------------------------------|
C|------/5\4~------12p11p9/15p14p12-------------------------------|
G|-2222-------2222------------------121212-999-101010-7777-787530-|
C|-2222-------2222------------------121212-999-101010-7777-787530-|
PM ****       ****                                    **** 


Добавлено: 02.08.2013
Другие материалы по этой песне:
  • Аккорды и текст

Страница создана 02.08.2013
http://primanota.ru/washya/sunken-ship-chords.htm
Привет, Гость.
Предлагаем пройти революционный курс по гитаре.
Подарок от PrimaNota.Ru, забирай!