PrimaNota.ru - самый крупный в мире бесплатный архив песенных текстов, аккордов, табулатур и нот


Washya - Submission - таба, видео

Регистрация Запомнить меня
Войти через:  Facebook Google Twitter Vk Yandex Mail.ru

Washya - Submission - таба, видео

Печатать
Просмотров: 54
-----------------------------------------------------------------------------
                Submission - Washya
-----------------------------------------------------------------------------
Tuning: Standard (ebgdae)
Intro/Chorus
E|-------------------------------------------|
B|-------------------------------------------|
G|-------------------------------------------|
D|-----999-----999-----777-----777-----------|
A|-----777-----777-----555-----555-333-5-3-5-|
E|-000-----000-----000-----000-----111-3-1-3-|
PM ***     ***     ***     *** 

E|-----------------|
B|-----------------|
G|-----------------|
D|-9\8\7-----------|
A|-7\6\5-6\5\4\3\2-|
E|-------4\3\2\1\0-|
PM       ********* 

Verses
E|--------------------------------------------|
B|--------------------------------------------|
G|--------------------------------------------|
D|--------------------------------------------|
A|------44-3------44-3------443-44-33-----443-|
E|-0000-22-1-0000-22-1--0000221-22-11-0000221-|
PM ****      ****       ****          **** 

E|--------------------------------------------------------|
B|--------------------------------------------------------|
G|--------------------------------------------------------|
D|-------8-7-6------------5/9------5/10-------8-7-6-------|
A|-3-4-5-6-5-4-4-3-2------3/7------3/8--3-4-5-6-5-4-4-3-2-|
E|-1-2-3-------2-1-0-0000-----0000------1-2-3-------2-1-0-|
PM * * *       * * * ****     ****      * * *       * * * 

Chorus
E|-------------------------------------------|
B|-------------------------------------------|
G|-------------------------------------------|
D|-----999-----999-----777-----777-----------|
A|-----777-----777-----555-----555-333-5-3-5-|
E|-000-----000-----000-----000-----111-3-1-3-|
PM ***     ***     ***     *** 

E|-----------------|
B|-----------------|
G|-----------------|
D|-9\8\7-----------|
A|-7\6\5-6\5\4\3\2-|
E|-------4\3\2\1\0-|
PM       ********* 

Verses
E|--------------------------------------------|
B|--------------------------------------------|
G|--------------------------------------------|
D|--------------------------------------------|
A|------44-3------44-3------443-44-33-----443-|
E|-0000-22-1-0000-22-1--0000221-22-11-0000221-|
PM ****      ****       ****          **** 

E|--------------------------------------------------------|
B|--------------------------------------------------------|
G|--------------------------------------------------------|
D|-------8-7-6------------5/9------5/10-------8-7-6-------|
A|-3-4-5-6-5-4-4-3-2------3/7------3/8--3-4-5-6-5-4-4-3-2-|
E|-1-2-3-------2-1-0-0000-----0000------1-2-3-------2-1-0-|
PM * * *       * * * ****     ****      * * *       * * * 

Part Before Solo
E|-----------------------------|
B|-----------------------------|
G|-----------------------------|
D|-------3---------------------|
A|-5-3/5-1-8-7-5-7-7-2-5-4-3-2-|
E|-3-1/3---6-5-3-5-5-0-3-2-1-0-|
PM                   * * * * * 

Guitar Solo
E|--------15p12----12h15p12----12h13p12----12h13p12----12h13p12----12h15p12-|
B|-12b13~-------15----------15----------15----------13----------13----------|
G|-13b----------------------------------------------------------------------|
D|--------------------------------------------------------------------------|
A|--------------------------------------------------------------------------|
E|--------------------------------------------------------------------------|

E|----13p12----------------------------------------------------------|
B|-15-------15p13p12----13p12----------------------------------------|
G|-------------------15-------15p13p12----13p12----------------------|
D|-------------------------------------15-------13h15p13p12----13p12-|
A|----------------------------------------------------------15-------|
E|-------------------------------------------------------------------|

E|--------------------------------------------------|
B|--------------------------------------------------|
G|--------------------------------------------------|
D|-15p13p12----13p12--------------------------------|
A|----------15-------13h15p13p12----13p12----12-----|
E|-------------------------------15-------14----12~-|

E|-------------------------------------------------------------------|
B|-------------------------------------------------------------------|
G|-------------------------------------------------------------------|
D|-------------------------------------------------12h14h15-12h14h15-|
A|-----------------9h11h13-9h11h13-9h11h13-9h11h13-------------------|
E|-9h11h13-9h11h13---------------------------------------------------|
PM ******* ******* ******* ******* ******* ******* 

E|-------------------------------------17h19h20-17h19h20-20-20b~\--|
B|-------------------14h16h17-14h16h17-----------------------------|
G|-13h15h16-13h15h16-----------------------------------------------|
D|-----------------------------------------------------------------|
A|-----------------------------------------------------------------|
E|-----------------------------------------------------------------|

Next Part (play 4 times)                  (play many times) (Very Fast)
E|---------------------------------------|-/15h19p17p15h19p17p15\-|
B|---------------------------------------|------------------------|
G|---------------------------------------|------------------------|
D|---------------------------------------|------------------------|
A|-22-33-2-33-2-3-2-7-22-33-2-33-2-3-2-9-|------------------------|
E|-00-11-0-11-0-1-0h5-00-11-0-11-0-1-0h7-|------------------------|
PM **    *    *   *   **    *    *   * 

Chorus
E|-------------------------------------------|
B|-------------------------------------------|
G|-------------------------------------------|
D|-----999-----999-----777-----777-----------|
A|-----777-----777-----555-----555-333-5-3-5-|
E|-000-----000-----000-----000-----111-3-1-3-|
PM ***     ***     ***     *** 

E|-----------------|
B|-----------------|
G|-----------------|
D|-9\8\7-----------|
A|-7\6\5-6\5\4\3\2-|
E|-------4\3\2\1\0-|
PM       ********* 

Verses
E|--------------------------------------------|
B|--------------------------------------------|
G|--------------------------------------------|
D|--------------------------------------------|
A|------44-3------44-3------443-44-33-----443-|
E|-0000-22-1-0000-22-1--0000221-22-11-0000221-|
PM ****      ****       ****          **** 

E|--------------------------------------------------------|
B|--------------------------------------------------------|
G|--------------------------------------------------------|
D|-------8-7-6------------5/9------5/10-------8-7-6-------|
A|-3-4-5-6-5-4-4-3-2------3/7------3/8--3-4-5-6-5-4-4-3-2-|
E|-1-2-3-------2-1-0-0000-----0000------1-2-3-------2-1-0-|
PM * * *       * * * ****     ****      * * *       * * * 

Outro 
E|---------------------------------------------|
B|---------------------------------------------|
G|---------------------------------------------|
D|---------------------------------------------|
A|-6655-6655-6655-6655-3h5p3-3322332233223h5-2-|
E|-4433-4433-4433-4433-------1100110011001h3-0-|
PM **** **** **** ****       ************      
Добавлено: 21.09.2013
Другие материалы по этой песне:
  • Аккорды и текст

Страница создана 21.09.2013
http://primanota.ru/washya/submission-chords.htm
Привет, Гость.
Предлагаем пройти революционный курс по гитаре.
Подарок от PrimaNota.Ru, забирай!