PrimaNota.ru - самый крупный в мире бесплатный архив песенных текстов, аккордов, табулатур и нот


Washya - Stupidity - таба, видео

Регистрация Запомнить меня
Войти через:  Facebook Google Twitter Vk Yandex Mail.ru

Washya - Stupidity - таба, видео

Печатать
Просмотров: 47
-----------------------------------------------------------------------------
      Stupidity - Washya
-----------------------------------------------------------------------------
Tuning: Drop C (DAFCGC)
Intro
D|---------------------------------------|
A|---------------------------------------|
F|---------------------------------------|
C|-8-xxx-3-x-0--------8-xxx-3-x-0--------|
G|-8-xxx-3-x-0--------8-xxx-3-x-0--------|
C|-8-xxx-3-x-0-000000-8-xxx-3-x-0-000000-|
PM             ******             ****** 

verses
D|----------------8-------------10-|
A|--------------8------------10----|
F|-----------66-----------88-------|
C|---------------------------------|
G|-000-0-0-0----000-0-0-0----------|
C|-000-0-0-0----000-0-0-0----------|
PM *** * * *    *** * * * 

Chorus
D|------------------------------------------------------------------------|
A|------------------------------------------------------------------------|
F|------------------------------------------------------------------------|
C|-8-xxx-3-xxx-0-5/7-5/7-8-xxx-3-xxx-0-----3h5-8-xxx-3-xxx-0--------------|
G|-8-xxx-3-xxx-0-3/5-3/5-8-xxx-3-xxx-0-3h5-----8-xxx-3-xxx-0-----------2*-|
C|-8-xxx-3-xxx-0---------8-xxx-3-xxx-0---------8-xxx-3-xxx-0-0h3-3p2p0----|
PM                                                           *** ***** 
Добавлено: 07.08.2013
Другие материалы по этой песне:
  • Аккорды и текст

Страница создана 07.08.2013
http://primanota.ru/washya/stupidity-chords.htm
Привет, Гость.
Предлагаем пройти революционный курс по гитаре.
Подарок от PrimaNota.Ru, забирай!