PrimaNota.ru - самый крупный в мире бесплатный архив песенных текстов, аккордов, табулатур и нот


Washya - Space Frigate - таба, видео

Регистрация Запомнить меня
Войти через:  Facebook Google Twitter Vk Yandex Mail.ru

Washya - Space Frigate - таба, видео

Печатать
Просмотров: 90
Уроки эстрадного вокала в Санкт-Петербурге
------------------------------------------------------------------------------
                       Space Frigate - Washya 
------------------------------------------------------------------------------
Tuning: Standard (EBGDAE)
Intro/Verses/Chorus
E|-------0-0-0-------------------------------0-0---------------------------|
B|-------4-3-------0-2-----------------------4-2-------6---------4---------|
G|-----5---------4---------0-2-------4-----5---------7---7-----5---5-------|
D|---2---------5---------4---------5-----2---------5---------3-----------2-|
A|-0-------------------5---------2-----0---------0---------0-----------2---|
E|-----------------------------0-------------------------------------0-----|

Guitar Solo
E|-------------------------------------------------------------------------|
B|----------------------------------------7h8p7---7h10-8h10h12-12h13p12----|
G|--------------------------------5b~-----------8-----------------------14-|
D|-5h7~-5h7h8p7p5h8p7p5h8p7p5~---------7~----------------------------------|
A|----------------------------5h7------------------------------------------|
E|-------------------------------------------------------------------------|

E|---------------11h12h14h16b~-17bp16p14p13h14p13---------------------|
B|-------12b~-12----------------------------------15-13b~-13-11-------|
G|-12h14--------------------------------------------------------12-11-|
D|--------------------------------------------------------------------|
A|--------------------------------------------------------------------|
E|--------------------------------------------------------------------|

E|------------------------------12b-14bp12-1414p12-1212p10-1010p8---------|
B|-------11h12p11h12p11-/9-9b~-/11b-------------------------------88p6-5~-|
G|------------------------------------------------------------------------|
D|-10h12------------------------------------------------------------------|
A|------------------------------------------------------------------------|
E|------------------------------------------------------------------------|

E|-------------------------------------------------14-12-11h12p11h12p11~-|
B|----------------------------------------17-16-14-----------------------|
G|-------------------------------14-15-17--------------------------------|
D|----------------------15-14-12-----------------------------------------|
A|-------14-12-12-14-15--------------------------------------------------|
E|-12-14-----------------------------------------------------------------|

E|--------------------------------------------------------------------------|
B|-/17h18p17h18\16h18p16h18p16\14h15p14h15p14h15p14\12h13p12h13p12\10h12p10-|
G|--------------------------------------------------------------------------|
D|--------------------------------------------------------------------------|
A|--------------------------------------------------------------------------|
E|--------------------------------------------------------------------------|

E|-------------------------------------------------------------------|
B|-12----------------------------------------------------------------|
G|----10h12p10h12p10\7h8p7h9p7h8p7-----------------------------------|
D|---------------------------------5h7p5h7p5h7p5h7p5h7---------------|
A|-----------------------------------------------------4h5p4h5p4h5h7-|
E|-------------------------------------------------------------------|

E|-------------------------------------------|
B|-------------------------------------------|
G|-------------------------------------------|
D|-------------------------------------------|
A|-------------------------------------------|
E|-5h7p5h7p5p4h5p4h5p4p2h4p2h4p2p0h2p0h2b~~~-|
Добавлено: 29.11.2013
Другие материалы по этой песне:
  • Аккорды и текст

Страница создана 29.11.2013
http://primanota.ru/washya/space-frigate-chords.htm
Привет, Гость.
Предлагаем пройти революционный курс по гитаре.
Подарок от PrimaNota.Ru, забирай!