PrimaNota.ru - самый крупный в мире бесплатный архив песенных текстов, аккордов, табулатур и нот


Washya - Smokeys Cabin - таба

Регистрация Запомнить меня
Войти через:  Facebook Google Twitter Vk Yandex Mail.ru

Washya - Smokeys Cabin - таба

Печатать
Просмотров: 66
Уроки эстрадного вокала в Санкт-Петербурге
-----------------------------------------------------------------------------
                      Smokey's Cabin - Washya (Slow eerie song)
-----------------------------------------------------------------------------
Tuning: Drop D (DADGBE)
Intro (Slow and heavy)
E|-------------------------------------------------|
B|-------------------------------------------------|
G|-------------------------------------------------|
D|-------------------------------------------------|
A|-0-0-0-0-3-5-0-0-0-6-5-3-0-0-0-0-2-3-0-0-0-5-3-2-|
D|-0-0-0-0-3-5-0-0-0-6-5-3-0-0-0-0-2-3-0-0-0-5-3-2-|

Part 2
E|-----------------------------------------------|
B|-----------------------------------------------|
G|---------5/7-------8\7\5-------4/5-------7\5\4-|
D|-----------------------------------------------|
A|-0-0-0-0-3/5-0-0-0-6\5\3-0-0-0-2/3-0-0-0-5\3\2-|
D|-0-0-0-0-----0-0-0-------0-0-0-----0-0-0-------|
PM * * * *     * * *       * * *     * * * 

Verses
E|-------0-----0--------------0-|
B|---------3---3--------------3-|
G|-----------2-2--------------0-|
D|-----0-------0------5-----2-0-|
A|---0---------0----5-----2---0-|
D|-0-----------0--5-----2-----0-|
PM                * *   * *  

Chorus
E|-----------------------------------------------------------------------|
B|-----------------------------------------------------------------------|
G|-----------------------------------------------------------------------|
D|-----------------------------------------------------------------------|
A|--------55555555/1010101010101010\333333333-00000000-11111111/55555555-|
D|-//\\xx-55555555/1010101010101010\333333333-00000000-11111111/55555555-|

E|-----------------------------------------------------|
B|-----------------------------------------------------|
G|-----------------------------------------------------|
D|-55555555/88888888----------------------------333333-|
A|-33333333/66666666-66666666-11111111-00000000-111111-|
D|-------------------66666666-11111111-00000000--------|

Interlude
E|------------------------------------------------------------------|
B|------------------------------------------------------------------|
G|-55555555/88888888-------8-----8--------5-----5-55555555\33333333-|
D|-33333333/66666666-----6-----6--------3-----3---33333333\11111111-|
A|-33333333/66666666---6-----6--------3-----3-----33333333\11111111-|
D|-33333333/66666666-6-------------\3-------------33333333\11111111-|
PM                   * * *   * *    * * *   * *  

E|------------------------------|
B|------------------------------|
G|-------5-----5--------3-----3-|
D|-----3-----3--------1-----1---|
A|---3-----3--------1-----1-----|
D|-3-------------\1-------------|
PM * * *   * *    * * *   * *  
 
Lead (slow)
E|---------------------------------------------------------------|
B|--------10-------10------8h10---11---10---8---/12p10p9----9----|
G|-/9bv~-----9-99-----9-99------8----8----8---8----------11---11-|
D|---------------------------------------------------------------|
A|---------------------------------------------------------------|
D|---------------------------------------------------------------|

E|---------------------------------------------------------15~-|
B|-10p9------11~-------11---10~-10p7h8h10p8h10/12h13p12h13-----|
G|------11-9-----8h9p8----8------------------------------------|
D|-------------------------------------------------------------|
A|-------------------------------------------------------------|
D|-------------------------------------------------------------|
Добавлено: 27.10.2013
Другие материалы по этой песне:
  • Аккорды и текст

Страница создана 27.10.2013
http://primanota.ru/washya/smokeys-cabin-chords.htm
Привет, Гость.
Предлагаем пройти революционный курс по гитаре.
Подарок от PrimaNota.Ru, забирай!