PrimaNota.ru - самый крупный в мире бесплатный архив песенных текстов, аккордов, табулатур и нот


Washya - Slick - таба, видео

Регистрация Запомнить меня
Войти через:  Facebook Google Twitter Vk Yandex Mail.ru

Washya - Slick - таба, видео

Печатать
Просмотров: 58
-------------------------------------------------------------------------------
 Slick - Washya
-------------------------------------------------------------------------------
Tuning: Drop D (DADGBE)
Intro (bass first)         (guitar)
E|-----------------------|---------------------------|
B|-----------------------|---------------------------|
G|-----------------------|---------------------------|
D|-------5p3p0-----------|-------5p3p0---------------|
A|-5p3p0-------5p3p0-----|-5p3p0-------5p3p0-3/5-1/3-|
D|-------------------3/5-|-------------------3/5-1/3-|

Verses
E|-------------------------------------------|
B|-------------------------------------------|
G|-------------------------------------------|
D|-------5p3p0-------5p3p0-----------------3-|
A|-5p3p0-------5p3p0-------5p3p0-3/5-1/3-0-1-|
D|-------------------------------3/5-1/3-0---|

Chorus
E|-------------------------------|
B|-------------------------------|
G|-------------------------------|
D|-------5p3p0---------------5/7-|
A|-0h3h5-------3-------------3/5-|
D|---------------3h5h6p5p3-0-----|
PM               ********* * 

Solo
E|------12b---------------15-13-12-------------15-------------------------|
B|-/12\-13b~-13b-13b-13b-----------14-15-14-12----13-12-------------------|
G|------------------------------------------------------15-14-12-------13-|
D|---------------------------------------------------------------14-15----|
A|------------------------------------------------------------------------|
D|------------------------------------------------------------------------|

E|----------13-12-15-13-12-------------12b-12b-12b/14b-14b---------|
B|----14-15----------------14-15-14-12h13b-13b-13b/15b-15b-15b~~~\-|
G|-12--------------------------------------------------------------|
D|-----------------------------------------------------------------|
A|-----------------------------------------------------------------|
D|-----------------------------------------------------------------|

Verses
E|-------------------------------------------|
B|-------------------------------------------|
G|-------------------------------------------|
D|-------5p3p0-------5p3p0-----------------3-|
A|-5p3p0-------5p3p0-------5p3p0-3/5-1/3-0-1-|
D|-------------------------------3/5-1/3-0---|

Chorus
E|-------------------------------|
B|-------------------------------|
G|-------------------------------|
D|-------5p3p0---------------5/7-|
A|-0h3h5-------3-------------3/5-|
D|---------------3h5h6p5p3-0-----|
PM               ********* * 
Добавлено: 03.06.2013
Другие материалы по этой песне:
  • Аккорды и текст

Страница создана 03.06.2013
http://primanota.ru/washya/slick-chords.htm
Привет, Гость.
Предлагаем пройти революционный курс по гитаре.
Подарок от PrimaNota.Ru, забирай!