PrimaNota.ru - самый крупный в мире бесплатный архив песенных текстов, аккордов, табулатур и нот


Washya - Silent Symphony - таба, видео

Регистрация Запомнить меня
Войти через:  Facebook Google Twitter Vk Yandex Mail.ru

Washya - Silent Symphony - таба, видео

Печатать
Просмотров: 67
Уроки эстрадного вокала в Санкт-Петербурге
-------------------------------------------------------------------------------
                    Silent Symphony - Washya
-------------------------------------------------------------------------------
Tuning: Standard (EBGDAE)
Intro
E|-----------------------------------|
B|-----------------------------------|
G|-----------------------------------|
D|-----5/7-----5/7-----5/7-----------|
A|-3-2-3/5-3-2-3/5-3-2-3/5-5/7\5\4-2-|
E|-1-0-----1-0-----1-0-----3/5\3\2-0-|
PM * *     * *     * *     ******* 

Verses (hold each chord)
E|-------------------|
B|-------------------|
G|-5--7--3-----------|
D|-------------------|
A|-3--5--1-5/7\5\4-2-|
E|---------3/5\3\2-0-|
PM         ******* 

Bit Before Chorus
E|-----------------|
B|-----------------|
G|-----------------|
D|-----------------|
A|-9-8-7-6-5-4-3-2-|
E|-7-6-5-4-3-2-1-0-|
PM * * * * * * *  

Chorus
E|--------------------------------------------------------------------|
B|--------------------------------------------------------------------|
G|--------------------------------------------------------------------|
D|---7---5---4h5p4\2---5---3---2h3p2-0---8---6--------------8-8-------|
A|---7---5---4h5p4\2---5---3---2h3p2-0---8---6---4h6p4------6-5---777-|
E|-0---0---0---------0---0---0---------0---0---0-------66-0-----0-555-|
PM *   *   *         *   *   *         *   *   *          *     * *** 
Добавлено: 10.10.2013
Другие материалы по этой песне:
  • Аккорды и текст

Страница создана 10.10.2013
http://primanota.ru/washya/silent-symphony-chords.htm
Привет, Гость.
Предлагаем пройти революционный курс по гитаре.
Подарок от PrimaNota.Ru, забирай!