PrimaNota.ru - самый крупный в мире бесплатный архив песенных текстов, аккордов, табулатур и нот


Washya - Sail The Night - таба, видео

Регистрация Запомнить меня
Войти через:  Facebook Google Twitter Vk Yandex Mail.ru

Washya - Sail The Night - таба, видео

Печатать
Просмотров: 88
-------------------------------------------------------------------------------
                Sail The Night - Washya (Instrumental) 
-------------------------------------------------------------------------------
Tuning: Standard (EBGDAE)
Intro/Main Riff/Through entire song
E|-------------------------------------------------------3-----------------|
B|-------2-----------6-----------------------------------3-----------------|
G|-------2-----------6-----------5---------7-3---------4---4---------4-----|
D|-----4-0-4-------7---7-------7---7-----5-----5-----5-------5-----5-----4-|
A|---2-------2---5-------5---8---------3-----------2-----------2-4-----2---|
E|-0-----------0-----------0---------0-----------0-------------------------|

E|----------------------9---------7---------5---------1---------0-|
B|----------------------9---------7---------5---------1---------0-|
G|-2-4-------2-------10---------8---------6---------2---1p0-----1-|
D|-------4-2-------9----------7---------5---------3-----------2-2-|
A|-----2---------7----------5---------3---------1-----------2---2-|
E|-------------0----------0---------0---------0-----------------0-|
Добавлено: 22.07.2013
Другие материалы по этой песне:
  • Аккорды и текст

Страница создана 22.07.2013
http://primanota.ru/washya/sail-the-night-chords.htm
Привет, Гость.
Предлагаем пройти революционный курс по гитаре.
Подарок от PrimaNota.Ru, забирай!