PrimaNota.ru - самый крупный в мире бесплатный архив песенных текстов, аккордов, табулатур и нот


Washya - Rockin In Memphis - таба, видео

Регистрация Запомнить меня
Войти через:  Facebook Google Twitter Vk Yandex Mail.ru

Washya - Rockin In Memphis - таба, видео

Печатать
Просмотров: 46
-----------------------------------------------------------------------------
                        Rockin In Memphis - Washya (cool rock riffs)
-----------------------------------------------------------------------------
Tuning Standard (EBGDAE)
Intro                              (let Ring)
E|---------------------------------|---|
B|---------------------------------|---|
G|---------------------------------|---|
D|---------------------------------|---|
A|-5/7-5/7-7/8-5/7-5/7-7/8-5/7-5/7-|-2-|
E|-3/5-3/5-5/6-3/5-3/5-5/6-3/5-3/5-|-0-|

Part two (main Rock Riff)/Chorus
E|-----------------------------------------|
B|-----------3---3-------------------------|
G|-----------3---3-------------------------|
D|---------5---5-----10\9------------------|
A|-5/7\5-----------2-8-\7----3---5---2-3-5-|
E|-3/5\3-x---------0-------5---5---x-0-1-3-|
PM                         *   *  

Verses
E|----------------------------------------------------|
B|----------------------------------------------------|
G|----------------------------------------------------|
D|----------------------------------------------------|
A|-2-3-2-x-xxxx-2-3-2-xx-xxxx-2-3-2-xx-xxx-2-3-2-xx-5-|
E|-0-1-0-x-xxxx-0-1-0-xx-xxxx-0-1-0-xx-xxx-0-1-0-xx-3-|

Rock Solo
E|----12----13----14----15----16----12-------10h13p10----10h13p10----10h15b-|
B|-12----12----12----12----12----12----12-12----------12----------12--------|
G|--------------------------------------------------------------------------|
D|--------------------------------------------------------------------------|
A|--------------------------------------------------------------------------|
E|--------------------------------------------------------------------------|
Добавлено: 02.07.2013
Другие материалы по этой песне:
  • Аккорды и текст

Страница создана 02.07.2013
http://primanota.ru/washya/rockin-in-memphis-chords.htm
Привет, Гость.
Предлагаем пройти революционный курс по гитаре.
Подарок от PrimaNota.Ru, забирай!