PrimaNota.ru - самый крупный в мире бесплатный архив песенных текстов, аккордов, табулатур и нот


Washya - Rings Of Power - таба, видео

Регистрация Запомнить меня
Войти через:  Facebook Google Twitter Vk Yandex Mail.ru

Washya - Rings Of Power - таба, видео

Печатать
Просмотров: 58
-----------------------------------------------------------------------------
                           Rings Of Power - Washya
-----------------------------------------------------------------------------
Tuning: Drop D (DADGBE)
Intro
E|-----------------------------------------------------------------------|
B|-----------------------------------------------------------------------|
G|-----------------------------------------------------------------------|
D|-----------------------------------------3h5-----1h3-------------------|
A|-3h5------3h5------1h3------1h3------3h5-----1h3-----3h5------1h3------|
D|-3h5-5555-3h5-5555-1h3-3333-1h3-3333-----------------3h5-5555-1h3-3333-|
PM     ****     ****     ****     ****                     ****     **** 

Verses
E|-------------------------------------------------------------------------|
B|-------------------------------------------------------------------------|
G|-------------------------------------------------------------------------|
D|----------------5h7-----1h3--------------6p5p3h5-6p5p3-----------7p5---5-|
A|------------5h7-----1h3-----1/3------------------------5-------------7---|
D|-3333333333-----------------1/3-33333333---------------5-5555555---------|
PM **********                     ********                 ******* 

E|------------------------------------|
B|------------------------------------|
G|------------------------------------|
D|-7p5--------------6---6---6\4-------|
A|-----7p6----------4-4-4-4-4\2-5\4\2-|
D|---------4-444444---4---4-----5\4\2-|
PM           ****** * * * *             

Chorus
E|--------------------------------------------------------------------------|
B|--------------------------------------------------------------------------|
G|--------------------------------------------------------------------------|
D|-9\6-------------6/7-4/5-6p3---3-----3-------2p0-2--------5/7-8\7---------|
A|-7\4-2/4/5-55555-4/5-2/3-----6---6p5---6p4p3-----0-3------3/5-6\5-2/3/5\\-|
D|-----2/4/5-55555-----------------------------------3-3333---------2/3/5\\-|
PM           *****                                     **** 

Tuning: Drop D (DADGBE)
Intro
E|-----------------------------------------------------------------------|
B|-----------------------------------------------------------------------|
G|-----------------------------------------------------------------------|
D|-----------------------------------------3h5-----1h3-------------------|
A|-3h5------3h5------1h3------1h3------3h5-----1h3-----3h5------1h3------|
D|-3h5-5555-3h5-5555-1h3-3333-1h3-3333-----------------3h5-5555-1h3-3333-|
PM     ****     ****     ****     ****                     ****     **** 

Verses
E|-------------------------------------------------------------------------|
B|-------------------------------------------------------------------------|
G|-------------------------------------------------------------------------|
D|----------------5h7-----1h3--------------6p5p3h5-6p5p3-----------7p5---5-|
A|------------5h7-----1h3-----1/3------------------------5-------------7---|
D|-3333333333-----------------1/3-33333333---------------5-5555555---------|
PM **********                     ********                 ******* 

E|------------------------------------|
B|------------------------------------|
G|------------------------------------|
D|-7p5--------------6---6---6\4-------|
A|-----7p6----------4-4-4-4-4\2-5\4\2-|
D|---------4-444444---4---4-----5\4\2-|
PM           ****** * * * *  
Добавлено: 16.08.2013
Другие материалы по этой песне:
  • Аккорды и текст

Страница создана 16.08.2013
http://primanota.ru/washya/rings-of-power-chords.htm
Привет, Гость.
Предлагаем пройти революционный курс по гитаре.
Подарок от PrimaNota.Ru, забирай!