PrimaNota.ru - самый крупный в мире бесплатный архив песенных текстов, аккордов, табулатур и нот


Washya - Raw Power - таба, видео

Регистрация Запомнить меня
Войти через:  Facebook Google Twitter Vk Yandex Mail.ru

Washya - Raw Power - таба, видео

Печатать
Просмотров: 47
-----------------------------------------------------------------------------
                          Raw Power - Washya
-----------------------------------------------------------------------------
Tuning: Standard (EBGDAE)
Intro
E|----------------------------------------------|
B|----------------------------------------------|
G|----------------------------------------------|
D|----------------------------------------9\7/9-|
A|---4/9---8\7---4/9---4/8---5\4---5/77---7\5/7-|
E|-0-2/7-0-6\5-0-2/7-0-2/6-0-3\2-0-3/55-0-------|
PM *     *     *     *     *     *      * 

Part 2              (Verses)
E|-----------------|---------------------------------------|
B|-----------------|---------------------------------------|
G|-----------------|---------------------------------------|
D|-----------------|-----------------2~/7~-----------------|
A|-333-222-333-222-|-222-222-222-222-------222-222-222-222-|
E|-111-000-111-000-|-000-000-000-000-------000-000-000-000-|
PM *** *** *** ***   *** *** *** ***       *** *** *** *** 

Chorus
E|-------------------------------------------------------|
B|-------------------------------------------------------|
G|-------------------------------------------------------|
D|-------------------------333-2-------------------------|
A|---5/7---5/7---8\7---5/7-111-0---3/5---3/5---6/5---3/5-|
E|-0-3/5-0-3/5-0-6\5-0-3/5-------0-1/3-0-1/3-0-4\3-0-1/3-|
PM *     *     *     *           *     *     *     * 

Solo
E|----------------7b10----1010101010101010-10h1213-13br10~-|
B|------------7h8------8~-8-8-8-8-8-8-8-8------------------|
G|-7h9-9~-7-9----------------------------------------------|
D|---------------------------------------------------------|
A|---------------------------------------------------------|
E|---------------------------------------------------------|

E|-----------------------------------------------------------------16-------|
B|-------------------------------------------------------16h17h19~----19p16-|
G|----------------------------------------------14h16h17--------------------|
D|-------------------------------------15h17h18-----------------------------|
A|-------------------14h16h17-14h16h17--------------------------------------|
E|-15h17h18-15h17h18--------------------------------------------------------|
PM ******** ******** ***************** ********

E|----------------16----------------16----------------16-20b-20b~\-|
B|-19p16----16h19----19p16----16h19----19p16----16h19--------------|
G|-------17----------------17----------------18--------------------|
D|-----------------------------------------------------------------|
A|-----------------------------------------------------------------|
E|-----------------------------------------------------------------|
Добавлено: 27.10.2013
Другие материалы по этой песне:
  • Аккорды и текст

Страница создана 27.10.2013
http://primanota.ru/washya/raw-power-chords.htm
Привет, Гость.
Предлагаем пройти революционный курс по гитаре.
Подарок от PrimaNota.Ru, забирай!