PrimaNota.ru - самый крупный в мире бесплатный архив песенных текстов, аккордов, табулатур и нот


Washya - Power Of The Mind - таба, видео

Регистрация Запомнить меня
Войти через:  Facebook Google Twitter Vk Yandex Mail.ru

Washya - Power Of The Mind - таба, видео

Печатать
Просмотров: 50
-------------------------------------------------------------------------------
                  Power Of The Mind - Washya
-------------------------------------------------------------------------------
Tuning: Standard (EBGDAE)
Intro
E|------------------------------------------------------------------|
B|------------------------------------------------------------------|
G|------------------------------------------------------------------|
D|-5---8-\\-------------------------------------------------888/999-|
A|-3-5-6-\\-------------------------------------------------666/777-|
E|---3------6-3-0-3-6-3-6-3-0-3-6-3-6-3-0-3-6-3-6-3-0-3-6-3---------|
PM          * * * * * * * * * * * * * * * * * * * * * * * * 

Verses
E|-----------------------------------------------------------------|
B|-----------------------------------------------------------------|
G|-----------------------------------------------------------------|
D|-----------------------------------------------------5/777-------|
A|-----------------------------------------------------3/555-8-7-5-|
E|-6-3-0-3-6-3-6-3-0-3-6-3-6-3-0-3-6-3-6-3-6-3-0-3-6-3-------6-5-3-|
PM * * * * * * * * * * * * * * * * * * * * * * * * * * 

Chorus
E|-----------------------------------------------------------------|
B|-------------------7~--------------------------------------------|
G|---------8-------8----8-7--------3p2h3/6p4h6/7p6h7/9p7h9p8h9/12~-|
D|-----5-7-----5-7-------------------------------------------------|
A|-----------7--------------5~-------------------------------------|
E|-0-0-------------------------//xx--------------------------------|
PM * * 

Verses
E|-----------------------------------------------------------------|
B|-----------------------------------------------------------------|
G|-----------------------------------------------------------------|
D|-----------------------------------------------------5/777-------|
A|-----------------------------------------------------3/555-8-7-5-|
E|-6-3-0-3-6-3-6-3-0-3-6-3-6-3-0-3-6-3-6-3-6-3-0-3-6-3-------6-5-3-|
PM * * * * * * * * * * * * * * * * * * * * * * * * * * 

Guitar Solo (Fast)
E|-----------------------------------------------------10---12~-|
B|----------------------------------------8---10-8---8----8-----|
G|------------------------7-5-----9---7-9---9------9------------|
D|------3---5-3-5---7-5-7-----7-9---9---------------------------|
A|-/3-5---5-------7---------------------------------------------|
E|--------------------------------------------------------------|
PM * * * * * * * * * * * * 

E|-17171717p15p12h17171717p15p12h17171717p15p12/15h181818p16p15h181818-|
B|---------------------------------------------------------------------|
G|---------------------------------------------------------------------|
D|---------------------------------------------------------------------|
A|---------------------------------------------------------------------|
E|---------------------------------------------------------------------|

E|-18----15----------------------------15--------------------------------|
B|----17----17-15----15----------18-17----16-----------------------------|
G|----------------16----16-17-15-------------17-15-----------------------|
D|-------------------------------------------------17-16-14--------------|
A|----------------------------------------------------------15-14-12-----|
E|-------------------------------------------------------------------13~-|

Intro
E|------------------------------------------------------------------|
B|------------------------------------------------------------------|
G|------------------------------------------------------------------|
D|-5---8-\\-------------------------------------------------888/999-|
A|-3-5-6-\\-------------------------------------------------666/777-|
E|---3------6-3-0-3-6-3-6-3-0-3-6-3-6-3-0-3-6-3-6-3-0-3-6-3---------|
PM          * * * * * * * * * * * * * * * * * * * * * * * * 

Verses
E|-----------------------------------------------------------------|
B|-----------------------------------------------------------------|
G|-----------------------------------------------------------------|
D|-----------------------------------------------------5/777-------|
A|-----------------------------------------------------3/555-8-7-5-|
E|-6-3-0-3-6-3-6-3-0-3-6-3-6-3-0-3-6-3-6-3-6-3-0-3-6-3-------6-5-3-|
PM * * * * * * * * * * * * * * * * * * * * * * * * * * 

Chorus
E|-----------------------------------------------------------------|
B|-------------------7~--------------------------------------------|
G|---------8-------8----8-7--------3p2h3/6p4h6/7p6h7/9p7h9p8h9/12~-|
D|-----5-7-----5-7-------------------------------------------------|
A|-----------7--------------5~-------------------------------------|
E|-0-0-------------------------//xx--------------------------------|
PM * * 
Добавлено: 03.12.2013
Другие материалы по этой песне:
  • Аккорды и текст

Страница создана 03.12.2013
http://primanota.ru/washya/power-of-the-mind-chords.htm
Привет, Гость.
Предлагаем пройти революционный курс по гитаре.
Подарок от PrimaNota.Ru, забирай!