PrimaNota.ru - самый крупный в мире бесплатный архив песенных текстов, аккордов, табулатур и нот


Washya - Mission Too The Warehouse - таба

Регистрация Запомнить меня
Войти через:  Facebook Google Twitter Vk Yandex Mail.ru

Washya - Mission Too The Warehouse - таба

Печатать
Просмотров: 43
-----------------------------------------------------------------------------
          Mission Too The Warehouse - Washya
-----------------------------------------------------------------------------
Tuning: Standard (ebgDAE) 
Intro
e|-2-2-----2-----2-----2-----1--------------------------0-------------------|
b|-3---3-----3-----3-----3---1-1-----1-----1-----1------0-------------------|
g|-2-----2-----2-----2-----2-2---2-----2-----2-----2----1-1-----1-----1-----|
d|-0-------------------------3-----3-----3-----3-----3--2---2-----2-----2---|
a|-0-------------------------3--------------------------2-----2-----2-----2-|
e|-0-------------------------1--------------------------0-------------------|

e|-------0-------------------0----------------------0-------------------|
b|-------1-1-----1-----1-----5-5------5------5------1-1-----1-----1-----|
g|-1-----0-------------------6-----6------6------6--2-------------------|
d|---2---2---2-----2-----2---7---7------7------7----3-----3-----3-----3-|
a|-----2-3-----3-----3-----3-7----------------------3---3-----3-----3---|
e|-------0-------------------0----------------------0-------------------|

e|-5-------------------0-0-----0-----0-----0-----3-------------------0-|
b|-6-6-----6-----6-----3-----3-----3-----3-----3-4-4-----4-----4-----0-|
g|-7-------------------2---2-----2-----2-----2---5-------------------2-|
d|-7-----7-----7-----7-0-------------------------5-----5-----5-----5-2-|
a|-5---5-----5-----5---0-------------------------3---3-----3-----3---0-|
e|-0-------------------0-------------------------0-------------------0-|

e|-------------------------0-------------------------0---------------------|
b|-0-----0-----0-----0-----2-2-----2-----2-----2-----1-1-----1-----1-----1-|
g|-----2-----2-----2-----2-2-----2-----2-----2-----2-2-----2-----2-----2---|
d|---2-----2-----2-----2---2---2-----2-----2-----2---2---2-----2-----2-----|
a|-------------------------0-------------------------0---------------------|
e|-------------------------0-------------------------0---------------------|

e|---------|
b|---------|
g|---------|
d|-5-4-3-2-|
a|-5-4-3-2-|
e|-3-2-1-0-|

Main Riff/Chorus (volume swell - mass distortion)
e|-------------------------------|
b|-------------------------------|
g|-------------------------------|
d|-7777-----------5555-----------|
a|-5555-777-9-567-3333-555-7-345-|
e|------555-7-345------333-5-123-|

Verses
e|-----0---------0-0---0-----0------0---1---0-------1-|
b|-3-----3-----3-----0---3-----3------1---1---3---1---|
g|---0-----0---------------0-----2--------------0-----|
d|-----------4----------------------------------------|
a|----------------------------------------------------|
e|----------------------------------------------------|
Добавлено: 22.08.2013
Другие материалы по этой песне:
  • Аккорды и текст

Страница создана 22.08.2013
http://primanota.ru/washya/mission-too-the-warehouse-chords.htm
Привет, Гость.
Предлагаем пройти революционный курс по гитаре.
Подарок от PrimaNota.Ru, забирай!