PrimaNota.ru - самый крупный в мире бесплатный архив песенных текстов, аккордов, табулатур и нот


Washya - Mercury Rising - таба, видео

Регистрация Запомнить меня
Войти через:  Facebook Google Twitter Vk Yandex Mail.ru

Washya - Mercury Rising - таба, видео

Печатать
Просмотров: 87
Уроки эстрадного вокала в Санкт-Петербурге
-------------------------------------------------------------------------------
                    Mercury Rising - Washya
-------------------------------------------------------------------------------
Tuning: Standard (ebgDAE)
Intro
e|---------------------------------|
b|---------------------------------|
g|---------------------------------|
D|---------------------------------|
A|-8-8-8-8-5-7-8-8-8-8-9-9-9-7-5-7-|
E|-6-6-6-6-3-5-6-6-6-6-7-7-7-5-3-5-|

Main Riff
e|-------------------------------------------|
b|-------------------------------------------|
g|-------------------------------------------|
D|-------------------------11-10-7-9-9-------|
A|-2-11-10-7-9-7-5-4-2---2-9--8--5-7-7-7-5-7-|
E|-0-9--8--5-7-5-3-2-0-x-0-------------5-3-5-|

Verses
e|----------------------------------------------|
b|----------------------------------------------|
g|----------------------------------------------|
D|-4-444-44-------2-4~-4-444-55-----7h8p5-5-7-5-|
A|-2-222-22-4-2-4------2-222-33-7-5-------3-5-3-|
E|----------2-------------------5---------------|

Guitar Solo
e|--------------------------------------------------------------------------|
b|-15b-15b-12h15p12h15p12h15p12h-14~-14h15p14h15p14h15p14-------------------|
g|--------------------------------------------------------12h14p12h14p12h14-|
D|--------------------------------------------------------------------------|
A|--------------------------------------------------------------------------|
E|--------------------------------------------------------------------------|

e|-------------------------------------------------------------------|
b|-------------------------------------------------------------------|
g|-12h14p12----------------------------------------------------------|
D|----------12p11h12p11h12p11-9h11p9h11p9h11-7h8p7h8p7h8-------------|
A|-------------------------------------------------------5h7p5h7p5h7-|
E|-------------------------------------------------------------------|

e|--------------------------------------------------------------------------|
b|--------------------------------------------------------------------------|
g|-------------------------------------------------------------------9h11p9-|
D|-------------------------------------------------6h8p6h8-8h9p8h9p8--------|
A|-------------------------------3h5p3h5-5h6p5h6p5--------------------------|
E|-3h5p3h5p3h5p3h5-2h3p2h3p2h3p0--------------------------------------------|

e|-----------------------------10h12p10h12p10h14p10-10h13p12p10h13p12p10-|
b|--------11h12p11h12p11h12p11-------------------------------------------|
g|-9h11p9----------------------------------------------------------------|
D|-----------------------------------------------------------------------|
A|-----------------------------------------------------------------------|
E|-----------------------------------------------------------------------|

e|-12h15p14p12h15p14p12-14h17p16p14h17p16p14-15h18p17p15h18p17p15/20-20-|
b|----------------------------------------------------------------------|
g|----------------------------------------------------------------------|
D|----------------------------------------------------------------------|
A|----------------------------------------------------------------------|
E|----------------------------------------------------------------------|
Добавлено: 01.07.2012
Другие материалы по этой песне:
  • Аккорды и текст

Страница создана 01.07.2012
http://primanota.ru/washya/mercury-rising-chords.htm
Привет, Гость.
Предлагаем пройти революционный курс по гитаре.
Подарок от PrimaNota.Ru, забирай!