PrimaNota.ru - самый крупный в мире бесплатный архив песенных текстов, аккордов, табулатур и нот


Washya - Lustful Appetite - таба

Регистрация Запомнить меня
Войти через:  Facebook Google Twitter Vk Yandex Mail.ru

Washya - Lustful Appetite - таба

Печатать
Просмотров: 54
Уроки эстрадного вокала в Санкт-Петербурге
-------------------------------------------------------------------------------
                Lustful Appetite - Washya
-------------------------------------------------------------------------------
Tuning: drop D (DADGBE)
Intro/Verses
E|-----------------------------------------|
B|-----------------------------------------|
G|-----------------------------------------|
D|-----------------------------------------|
A|-0-0-0-0-0-0-0-0-0-0-0-0-0-0-0-0-0-0-0-0-|
D|-0-0-0-0-0-0-0-0-0-0-0-0-0-0-0-0-0-0-0-0-|x2

Main Riff/Chorus
E|-------------------------------------|
B|-------------------------------------|
G|-------------------------------------|
D|-------------------------------------|
A|-6-5-3-2-1/8-7-5-3-2/6-5-3-2-1/8-7-6-|
D|-6-5-3-2-1/8-7-5-3-2/6-5-3-2-1/8-7-6-|

Lead
E|--------------------------------------------------------------------|
B|--------------------------------------------------------------------|
G|----------4h5p4/7h8p7----------5p4p2h5p4p2---8p7p5h8p7p5------------|
D|-------------------------------------------4-------------7----------|
A|-0-0000-0-------------0-0000-0-----------------------------0-0000-0-|
D|-0-0000-0-------------0-0000-0-----------------------------0-0000-0-|

E|-/10p8p7----8p7---------------------------------------------------------|
B|---------10-----10p8p7----8p7-------------------------------------------|
G|-----------------------10-----10p8p7------7h10p8p7----------------------|
D|-------------------------------------10p8----------10p8p7----8p7--------|
A|----------------------------------------------------------10-----10p8p7-|
D|------------------------------------------------------------------------|

E|---------------------------------------|
B|---------------------------------------|
G|---------------------------------------|
D|----8p7--------------------------------|
A|-10-----10p8p7h10p8p7----8p7-----------|
D|----------------------10-----10p8p7~~~-|

Interlude
E|-----------------------------------------------------|
B|-----------------------------------------------------|
G|-----------------------------------------------------|
D|-----------------------------------------------------|
A|-0-00-00-0-0-3p1p0-0-00-00-0-0-4p3p1p0-00-00-0-1-0-1-|
D|-0-00-00-0-0-3p1p0-0-00-00-0-0-4p3p1p0-00-00-0-1-0-1-|
PM * ** ** * * ***** * ** ** * * ******* ** ** * * * * 

Intro/Verses
E|-----------------------------------------|
B|-----------------------------------------|
G|-----------------------------------------|
D|-----------------------------------------|
A|-0-0-0-0-0-0-0-0-0-0-0-0-0-0-0-0-0-0-0-0-|
D|-0-0-0-0-0-0-0-0-0-0-0-0-0-0-0-0-0-0-0-0-|x2

Main Riff/Chorus
E|-------------------------------------|
B|-------------------------------------|
G|-------------------------------------|
D|-------------------------------------|
A|-6-5-3-2-1/8-7-5-3-2/6-5-3-2-1/8-7-6-|
D|-6-5-3-2-1/8-7-5-3-2/6-5-3-2-1/8-7-6-|
Добавлено: 31.10.2013
Другие материалы по этой песне:
  • Аккорды и текст

Страница создана 31.10.2013
http://primanota.ru/washya/lustful-appetite-chords.htm
Привет, Гость.
Предлагаем пройти революционный курс по гитаре.
Подарок от PrimaNota.Ru, забирай!