PrimaNota.ru - самый крупный в мире бесплатный архив песенных текстов, аккордов, табулатур и нот


Washya - Lovers Demise - таба, видео

Регистрация Запомнить меня
Войти через:  Facebook Google Twitter Vk Yandex Mail.ru

Washya - Lovers Demise - таба, видео

Печатать
Просмотров: 45
-----------------------------------------------------------------------------
               Lover's Demise (VERY SLOW SONG) - Washya
-----------------------------------------------------------------------------
Tuning: DROP D (DADGBE)
Intro/Verses
E|-------------------------------------------------|
B|-------------------------------------------------|
G|-------------------------------------------------|
D|-----2-5-4-2---------4-7-6-4---------6-9-8-6-----|
A|---2---------2-----4---------4-----6---------6-6-|
D|-2-------------2/4-------------4/6-------------6-|

E|---------------------------------------------|
B|---------------------------------------------|
G|-----4-5-4---------6-7-6---------8-9-8-------|
D|---2-------2-----4-------4-----6-------6---8-|
A|-2-----------2-4-----------4-6-----------6-6-|
D|---------------------------------------------|

E|-----------------------------------------------3-|
B|-----------------------------------------------3-|
G|-----------------------------0-----0-----------5-|
D|-----4-----6-----4-----2---2-----5-------7-----5-|
A|---2-----4-----6-----4---4-----3-------5-----3-3-|
D|-2-----4-----6-----4-----------------5-----3---3-|

Chorus (play fast)
E|-----------------------------------------|
B|-----------------------------------------|
G|-----------------------------------------|
D|-----------------------------------------|
A|-33-5-3-6-33-5-3-6-33-5-3-6-33-5-3-6-7-8-|
D|-33-5-3-6-33-5-3-6-33-5-3-6-33-5-3-6-7-8-|
PM **   *   **   *   **   *   **   *   

Before Solo
E|--------------------------------------------------------------------|
B|--------------------------------------------------------------------|
G|--------------------------------------------------------------------|
D|--------------------------------------------------------------------|
A|------3---5-3---------------2-------5---7-5---------------4-1234567-|
D|-3-55---5-----5-2-3-5-1-2-4-2--5-77---7-----7-4-5-7-3-4-6-4-1234567-|
PM * **   *     * * * * * * *    * **   *     * * * * * * *   ****** 

Part 2 before solo
E|-----------------------------------|
B|-----------------------------------|
G|-----------------------------------|
D|-----------------------------------|
A|-1-4-1-3-1-4-1-3-1-3-4-3-1-0-00000-|
D|-1-4-1-3-1-4-1-3-1-3-4-3-1-0-00000-|
PM * * * * * * * * * * * * * * ***** 

Guitar Solo (slow)
E|--------------------------------------17-19----17-20bp19p18~--|
B|----17b17171717171717171717bp-15~\-18-------18----------------|
G|-16-----------------------------------------------------------|
D|--------------------------------------------------------------|
A|--------------------------------------------------------------|
D|--------------------------------------------------------------|

E|-----10----13-12-10----11h12p11-----------|
B|-13b----13----------13--------------------|
G|--------------------------------/9p7h9~---|
D|------------------------------------------|
A|------------------------------------------|
D|------------------------------------------|

E|--------------------------3--------------------------|
B|-----------------------4b-----------7---7---7h10b~\--|
G|-4b-2---2---2-4b-2-4-5--------------7---7---7--------|
D|------4---4-----------------5b~--99---9---9----------|
A|-----------------------------------------------------|
D|-----------------------------------------------------|
Добавлено: 06.09.2013
Другие материалы по этой песне:
  • Аккорды и текст

Страница создана 06.09.2013
http://primanota.ru/washya/lovers-demise-chords.htm
Привет, Гость.
Предлагаем пройти революционный курс по гитаре.
Подарок от PrimaNota.Ru, забирай!