PrimaNota.ru - самый крупный в мире бесплатный архив песенных текстов, аккордов, табулатур и нот


Washya - Living In The Country - таба, видео

Регистрация Запомнить меня
Войти через:  Facebook Google Twitter Vk Yandex Mail.ru

Washya - Living In The Country - таба, видео

Печатать
Просмотров: 51
-----------------------------------------------------------------------------
       Living In The Country - Washya
-----------------------------------------------------------------------------
Tuning: Standard (EBGDAE)
Intro/Chorus
E|-0-----------0---------------2-------0-----------------0-------------3-|
B|-1-1p0-------0---------------3-------3-3-------0h1p0---1-------------3-|
G|-0-----0h2p0-1-1p0-------1p0-2-2p0---0---------------2-2-0h2p0-------0-|
D|-2-----------2-------2-------0-----2-2-----2-----------2-------3p2p0-0-|
A|-3-----------2-----2---2-----0-------2-------2---------0-------------2-|
E|-0-----------0---------------0-------0---0-------------0-------------3-|

Verses
E|-0-00-00--0-00-00-2-22-2-000-0-33-33-3-33-333-3-3-|
B|-1-11-11--0-00-00-3-33-3-333-3-33-33-3-33-333-3-3-|
G|-0-00-00--1-11-11-2-22-2-000-0-00-00-0-00-000-0-0-|
D|-2-22-22--2-22-22-0-00-0-222-2-00-00-0-00-000-0-0-|
A|-3-33-33--2-22-22-0-00-0-222-2-22-22-2-22-222-2-2-|
E|-0-00-00--0-00-00-0-00-0-000-0-33-33-3-33-333-3-3-|

Lead (slowly)
E|---------------------------------------------------------------------|
B|-------------10p8-7h8h10/9h10h12-10h12h15b-15b-12----12h13p12--------|
G|-/8p7~-7h8p7--------------------------------------14----------14p12~-|
D|---------------------------------------------------------------------|
A|---------------------------------------------------------------------|
E|---------------------------------------------------------------------|

E|---------------------------------------------------------------------|
B|-----------------------13p12----13p12----13p12----13p12--------------|
G|-------10h12p10~-12h14-------14-------14-------14-------15~-13h15p13-|
D|-10h12---------------------------------------------------------------|
A|---------------------------------------------------------------------|
E|---------------------------------------------------------------------|

E|-----------------------------------------------------------------------|
B|-16p15-15bp13h15p13----------------------7-----7-----7-----10-7h8h10---|
G|--------------------15p13p12----12~--------8p7---8p7---8p7-----------9-|
D|-----------------------------14-----/7h9-------------------------------|
A|-----------------------------------------------------------------------|
E|-----------------------------------------------------------------------|

E|------------------------------------------------|
B|-----7-6----------------------------------------|
G|-7-9-----9-7-9---5------------------------------|
D|---------------7---7-5-----5-4------------------|
A|-----------------------7-7-----7-5-7------------|
E|--------------------------------------5-7-8-7\4-|

Verses
E|-0-00-00--0-00-00-2-22-2-000-0-33-33-3-33-333-3-3-|
B|-1-11-11--0-00-00-3-33-3-333-3-33-33-3-33-333-3-3-|
G|-0-00-00--1-11-11-2-22-2-000-0-00-00-0-00-000-0-0-|
D|-2-22-22--2-22-22-0-00-0-222-2-00-00-0-00-000-0-0-|
A|-3-33-33--2-22-22-0-00-0-222-2-22-22-2-22-222-2-2-|
E|-0-00-00--0-00-00-0-00-0-000-0-33-33-3-33-333-3-3-|


Chorus
E|-0-----------0---------------2-------0-----------------0-------------3-|
B|-1-1p0-------0---------------3-------3-3-------0h1p0---1-------------3-|
G|-0-----0h2p0-1-1p0-------1p0-2-2p0---0---------------2-2-0h2p0-------0-|
D|-2-----------2-------2-------0-----2-2-----2-----------2-------3p2p0-0-|
A|-3-----------2-----2---2-----0-------2-------2---------0-------------2-|
E|-0-----------0---------------0-------0---0-------------0-------------3-|
Добавлено: 16.09.2013
Другие материалы по этой песне:
  • Аккорды и текст

Страница создана 16.09.2013
http://primanota.ru/washya/living-in-the-country-chords.htm
Привет, Гость.
Предлагаем пройти революционный курс по гитаре.
Подарок от PrimaNota.Ru, забирай!