PrimaNota.ru - самый крупный в мире бесплатный архив песенных текстов, аккордов, табулатур и нот


Washya - Lightning Strikes Twelve - таба, видео

Регистрация Запомнить меня
Войти через:  Facebook Google Twitter Vk Yandex Mail.ru

Washya - Lightning Strikes Twelve - таба, видео

Печатать
Просмотров: 38
-----------------------------------------------------------------------------
                  Lightning Strikes Twelve - Washya
-----------------------------------------------------------------------------
Tuning: Standard (EBGDAE)
Intro
E|-----------------|-----------------------------------------------------|
B|-----------------|-----------------------------------------------------|
G|-----------------|-------------------------------------5h6h7-5h6h7/9~~-|
D|-2-3-0---------2-|-------------------------4h5h6-4h5h6-----------------|
A|-2-3---2p1p0---2-|-------------3h4h5-3h4h5-----------------------------|
E|-0-1---------3-0-|-2h3h4-2h3h4-----------------------------------------|
    PM ***** ***** ***** ***** *****               

Verses
E|-----------------------------------------------|-------------------------|
B|-----------------------------------------------|-------------------------|
G|-----------------------------------------------|-6p5p4-6p5p4-------------|
D|-0---------------0---------------0-------------|-------------5p4p3-5p4p3-|
A|---2p1p0-----1h2---2p1p0-----1h2---2p1p0-3/4/5-|-------------------------|
E|---------3-0-------------3-0-------------1/2/3-|-------------------------|

E|-------------------------|
B|-------------------------|
G|-------------------------|
D|-------------------------|
A|-4p3p2-4p3p2-5/6/7-3/4/5-|
E|-------------3/4/5-1/2/3-|

Chorus
E|--------------------------------------------------------|
B|--------------------------------------------------------|
G|--------------------------------------------------------|
D|------------------101010\9------------------777\55------|
A|------666\5-3/4/5-8-8-8-\7-555/66-3/5-7/8/9-555\33-55/7-|
E|-//xx-444\3-1/2/3----------333/44-1/3-5/6/7--------33/5-|

Guitar Solo
E|------------8-8-8-8-8-----12-17b-17bp15-----|
B|---6-----6~-----------/13---------------16~-|
G|-4---8p4----6-6-6-6-6-----------------------|
D|--------------------------------------------|
A|--------------------------------------------|
E|--------------------------------------------|

Fast section
E|-------------------------------------------------------------------------|
B|-------------------------------------------------------------------------|
G|-------------------------------------------------------14h16h17p14h16h17-|
D|-------------------------------------13h15h17p13h15h17-------------------|
A|-------------------13h15h16p13h15h16-------------------------------------|
E|-12h14h15p12h14h15-------------------------------------------------------|

E|----------16----------------16----------------16----------------16----|
B|----16-19----19-16----16-19----19-16----16-19----19-16----16-19----19-|
G|-17----------------17----------------17----------------17-------------|
D|----------------------------------------------------------------------|
A|----------------------------------------------------------------------|
E|----------------------------------------------------------------------|

E|-------------16----------------16----16----20b-20b-20b~~~~-|
B|-16----16-19----19-16----16-19----19----19-----------------|
G|----17----------------17-----------------------------------|
D|-----------------------------------------------------------|
A|-----------------------------------------------------------|
E|-----------------------------------------------------------|
Добавлено: 29.09.2013
Другие материалы по этой песне:
  • Аккорды и текст

Страница создана 29.09.2013
http://primanota.ru/washya/lightning-strikes-twelve-chords.htm
Привет, Гость.
Предлагаем пройти революционный курс по гитаре.
Подарок от PrimaNota.Ru, забирай!