PrimaNota.ru - самый крупный в мире бесплатный архив песенных текстов, аккордов, табулатур и нот


Washya - Levelled Out - таба, видео

Регистрация Запомнить меня
Войти через:  Facebook Google Twitter Vk Yandex Mail.ru

Washya - Levelled Out - таба, видео

Печатать
Просмотров: 57
Уроки эстрадного вокала в Санкт-Петербурге
-----------------------------------------------------------------------------
                  Levelled Out - Washya
-----------------------------------------------------------------------------
Tuning: D Standard (DAFCGD)
Intro/Chorus
D|------------------------------------------|
A|------------------------------------------|
F|------------------------------------------|
C|------------------------------------------|
G|-3-5-6-5--5-7-8-7--3-5-6-5--5-7-8-7-5-3-2-|
D|-1-3-4-3--3-5-6-5--1-3-4-3--3-5-6-5-3-5-0-|

Part 2
D|------------------------------------------|
A|------------------------------------------|
F|------------------------------------------|
C|------------------------------------------|
G|-3-5-6-5--5-7-8-7--3-5-6-5--5-7-8-7-5-3-2-|
D|-1-3-4-3--3-5-6-5--1-3-4-3--3-5-6-5-3-5-0-|
PM * * * *  * * * *  * * * *  * * * * * * * 

Part 3
D|---------------------------------------------------|
A|---------------------------------------------------|
F|---------------------------------------------------|
C|-------------------------------------------3-2-----|
G|-------------------------------------------1-0-3-2-|
D|-000-0-0-0-000-0-0000-0000-0-000000-00-0-0-----1-0-|
PM *** * * * *** * **** **** * ****** ** * *  

Verses
D|---------------------------------------------------|
A|---------------------------------------------------|
F|---------------------------------------------------|
C|-------------------------------------------8-------|
G|-111-1-1-1-111-1-1111-5555-5-555555-55-5-5-6-6-4-2-|
D|-000-0-0-0-000-0-0000-0000-0-000000-00-0-0---4-2-0-|
PM *** * * * *** * **** **** * ****** ** * *   

Chorus
D|------------------------------------------|
A|------------------------------------------|
F|------------------------------------------|
C|------------------------------------------|
G|-3-5-6-5--5-7-8-7--3-5-6-5--5-7-8-7-5-3-2-|
D|-1-3-4-3--3-5-6-5--1-3-4-3--3-5-6-5-3-5-0-|

Solo
D|-----------------------------------------10b-12b~-|
A|----------------------------8---10-8---8----------|
F|------------------7---5/7-9---9------9------------|
C|--------5---3/5-7---7-----------------------------|
G|-/5-3-5---5---------------------------------------|
D|--------------------------------------------------|
PM * * * * * * * * * * * * 

D|-15151515151515151515p12----12h16161616161616161616p12----15p14----------|
A|-------------------------13----------------------------13-------13h15p13-|
F|-------------------------------------------------------------------------|
C|-------------------------------------------------------------------------|
G|-------------------------------------------------------------------------|
D|-------------------------------------------------------------------------|

D|----------------13----------------13----------------------------------|
A|----12-15p13-------15p13-15p13-------15p13-15p13----------------------|
F|-14----------15----------------15----------------13h15p12----------16-|
C|----------------------------------------------------------14h15p14----|
G|----------------------------------------------------------------------|
D|----------------------------------------------------------------------|

D|-----------------------------------------------------13p12----------13p12-|
A|-----------------------13p12-------13p12----16p14h16-------16p14h16-------|
F|-----------16p14h16p14-------14h16-------14-------------------------------|
C|--15p14h15----------------------------------------------------------------|
G|--------------------------------------------------------------------------|
D|--------------------------------------------------------------------------|

D|-12h13p12h13pp12h13h15p12h13h12----------15p13---------------------|
A|--------------------------------14h15p12-------13h15p12-------12~\-|
F|--------------------------------------------------------12p10------|
C|-------------------------------------------------------------------|
G|-------------------------------------------------------------------|
D|-------------------------------------------------------------------|
Добавлено: 05.10.2013
Другие материалы по этой песне:
  • Аккорды и текст

Страница создана 05.10.2013
http://primanota.ru/washya/levelled-out-chords.htm
Привет, Гость.
Предлагаем пройти революционный курс по гитаре.
Подарок от PrimaNota.Ru, забирай!