PrimaNota.ru - самый крупный в мире бесплатный архив песенных текстов, аккордов, табулатур и нот


Washya - Kill Us All - таба, видео

Регистрация Запомнить меня
Войти через:  Facebook Google Twitter Vk Yandex Mail.ru

Washya - Kill Us All - таба, видео

Печатать
Просмотров: 43
-----------------------------------------------------------------------------
                         Kill Us All - Washya
-----------------------------------------------------------------------------
Tuning: Standard (EBGDAE)
Intro
E|-------------------------|
B|-------------------------|
G|-------------------------|
D|---------------2---------|
A|-------2-3---3---3-5---2-|
E|-2-3-5-----5---------3-0-|
PM * * * * * * * * * * * 

Verses
E|------------------------------------------------|
B|------------------------------------------------|
G|------------------------------------------------|
D|-----------------4*-----------------------------|
A|----5---4----5---------5---4----5---44444-22222-|
E|-22---2---22---2----22---2---22---2-22222-00000-|
PM **   *   **   *    **   *   **   *  

Chorus
E|------------------------------------------------------------------|
B|------------------------------------------------------------------|
G|-------77\55---------------555/77/9-------------------------------|
D|------------------------------------------------------------------|
A|-44-44-55\33-5-5-5-5-5-5-5-333/55/7-9-9-9-9-9-9\8-88888\5-55555-2-|
E|-22-22-------3-3-3-3-3-3-3----------7-7-7-7-7-7\6-66666\3-33333-0-|
PM ** **         * * * * * *            * * * * *   *****   ***** 

Guitar Solo
E|------------------------------------------10h12-13p12p10----10h12-13p12p10|
B|-------------------------------3-2----/12----------------12---------------|
G|---------------------2h4-2---2-----2~-------------------------------------|
D|-----2---2-4-2---2-4-------4----------------------------------------------|
A|-2h4---4-------4----------------------------------------------------------|
E|--------------------------------------------------------------------------|

E|-------12-15p14-------10-13p12-----7-10b-12b~---------------------------|
B|-12h13----------10h12----------7h8------------6h8h9p6h8h9-8h9h11p8h9h11-|
G|------------------------------------------------------------------------|
D|------------------------------------------------------------------------|
A|------------------------------------------------------------------------|
E|------------------------------------------------------------------------|

E|-------------------12h14h15p12h14h15/18~-18p17p15h18p17p15h18p17p15--|
B|-10h12h13p10h12h13---------------------------------------------------|
G|---------------------------------------------------------------------|
D|---------------------------------------------------------------------|
A|---------------------------------------------------------------------|
E|---------------------------------------------------------------------|

E|-----------------------------------------------------------|
B|-15p14p12h15p14p12-----------------------------------------|
G|-------------------12p11p9h12p11p9\9p8p6h9p8p6\6p5p3h6p5p3-|
D|-----------------------------------------------------------|
A|-----------------------------------------------------------|
E|-----------------------------------------------------------|

E|-----2-6---------8-------------------------------------------------------|
B|-2h3-----4-----6---5-5h7h8p5h7h8---------------9-------------------------|
G|-----------5h7-------------------7h9h10p7h9h10---10p9p7h9h10-------------|
D|-------------------------------------------------------------9p8p6-------|
A|-------------------------------------------------------------------9p8p6-|
E|-------------------------------------------------------------------------|

E|--------------------------|
B|--------------------------|
G|--------------------------|
D|--------------------------|
A|-6p5p3h6p5p3--------------|
E|-------------6p4p3h6p4p3~-|

Chorus
E|------------------------------------------------------------------|
B|------------------------------------------------------------------|
G|-------77\55---------------555/77/9-------------------------------|
D|------------------------------------------------------------------|
A|-44-44-55\33-5-5-5-5-5-5-5-333/55/7-9-9-9-9-9-9\8-88888\5-55555-2-|
E|-22-22-------3-3-3-3-3-3-3----------7-7-7-7-7-7\6-66666\3-33333-0-|
PM ** **         * * * * * *            * * * * *   *****   ***** 

Verses
E|------------------------------------------------|
B|------------------------------------------------|
G|------------------------------------------------|
D|-----------------4*-----------------------------|
A|----5---4----5---------5---4----5---44444-22222-|
E|-22---2---22---2----22---2---22---2-22222-00000-|
PM **   *   **   *    **   *   **   *  
Добавлено: 13.11.2013
Другие материалы по этой песне:
  • Аккорды и текст

Страница создана 13.11.2013
http://primanota.ru/washya/kill-us-all-chords.htm
Привет, Гость.
Предлагаем пройти революционный курс по гитаре.
Подарок от PrimaNota.Ru, забирай!