PrimaNota.ru - самый крупный в мире бесплатный архив песенных текстов, аккордов, табулатур и нот


Washya - Kill The Messenger - таба, видео

Регистрация Запомнить меня
Войти через:  Facebook Google Twitter Vk Yandex Mail.ru

Washya - Kill The Messenger - таба, видео

Печатать
Просмотров: 39
-------------------------------------------------------------------------------
              Kill The Messenger - Washya
-------------------------------------------------------------------------------
Tuning: Standard (ebgDAE)
Intro (high gain, high distortion)
e|-------0-------------------------------------|
b|-----2---------2-------0---------------------|
g|---3---------0-------2-----------------------|
D|-----------2-------3---------2---------------|
A|-0-------0-------0---------2------3----3-3-2-|
E|-------------------------0-----0001-0001-1-0-|
PM                               ***  ***    *

Verses
e|---------------------------------------------------------------------|
b|---------------------------------------------------------------------|
g|---------------------------------------------------------------------|
D|---------------------------------------------------------------------|
A|-22-22222222-22-22222222-22-22222222-2223-2223-3-2-2222222-3-2222222-|
E|-00-00000000-00-00000000-00-00000000-0001-0001-1-0-0000000-1-0000000-|
PM ** ******** ** ******** ** ******** ***  ***    * *******   *******

Chorus
e|-------------------------------------------------------------|
b|-------------------------------------------------------------|
g|-------------------------------------------------------------|
D|--------------------------------5-3---/-18\~-----------------|
A|------222-/17b\-444-4-/12~\-5-6-3-1-2--------222-/14~\-2-3-4-|
E|-15\\-000-------222-2-------3-4-----0--------000-------0-1-2-|
PM      ***       *** *       * *     *        ***       * * * 

Guitar Solo (very fast)
e|---------------------------------------------------------------19----19-|
b|--------16----16----18~-18----------------18----------------18----18----|
g|-/15-15----15----15--------17-15----15-17----17-15----15-17-------------|
D|---------------------------------17----------------17-------------------|
A|------------------------------------------------------------------------|
E|------------------------------------------------------------------------|

e|-19h20p19p17h19p17p16h17p15h16p15p13h15p13p12h14p12p10h11p9----------|
b|------------------------------------------------------------10-12----|
g|------------------------------------------------------------------10-|
D|---------------------------------------------------------------------|
A|---------------------------------------------------------------------|
E|---------------------------------------------------------------------|

e|--------------12b-12h17p15p12h17p15p12h17p15p12------------------------|
b|-----------10-----------------------------------17p15p12h17p15p12------|
g|-9-7---8-7--------------------------------------------------------14~--|
D|-----9-----------------------------------------------------------------|
A|-----------------------------------------------------------------------|
E|-----------------------------------------------------------------------|

e|-------------------------------------------------------------------------|
b|-------------------------------------------------------------------------|
g|----------------------------------------------------------------12h17h14-|
D|-------------------------------------------14h19p16p14h19p16p14----------|
A|----------------------11h13h16p13p11h13h16-------------------------------|
E|-11h13h16p13p11h13h16----------------------------------------------------|

e|-----------------------------------------13t19p16p13t19p16p13/-15-15-15b~-|
b|-------------------13ht19p16p13t19p16p13----------------------------------|
g|-12h17p14p12h17p14--------------------------------------------------------|
D|--------------------------------------------------------------------------|
A|--------------------------------------------------------------------------|
E|--------------------------------------------------------------------------|
Добавлено: 17.07.2013
Другие материалы по этой песне:
  • Аккорды и текст

Страница создана 17.07.2013
http://primanota.ru/washya/kill-the-messenger-chords.htm
Привет, Гость.
Предлагаем пройти революционный курс по гитаре.
Подарок от PrimaNota.Ru, забирай!