PrimaNota.ru - самый крупный в мире бесплатный архив песенных текстов, аккордов, табулатур и нот


Washya - Jeers - таба

Регистрация Запомнить меня
Войти через:  Facebook Google Twitter Vk Yandex Mail.ru

Washya - Jeers - таба

Печатать
Просмотров: 55
-------------------------------------------------------------------------------
                                  Jeers - Washya
-------------------------------------------------------------------------------
Tuning: Drop D (DADGBE)
Intro
E|--------------------3-|
B|--------------------3-|
G|--------------------5-|
D|--------------------5-|
A|-1-1-0--------1-1-0-3-|
D|-1-1-0-//\\xx-1-1-0-0-|

Verses
E|-----------------------|
B|-----------------------|
G|-----------------------|
D|---------------------5-|
A|----6---3----5---3---3-|
D|-00-6-0-3-00-5-0-3-0---|
PM **   *   **   *   * 

Chorus
E|----------------------------------------------|
B|----------------------------------------------|
G|-------------------888\7----------------------|
D|-55/7/8\7\5---------------------------------5-|
A|-33/5/6\5\3-3-1-11-666\5-33/5/6\5\3-1-1-111-3-|
D|------------3-1-11-------33/5/6\5\3-1-1-111---|

Lead
E|--------------------------------------------------------------------16b~-|
B|------------7-9b~-----------------10-12b~-----13h15p13-----13h15p13------|
G|-/9-7---7-9-------/12-10----10-12---------14b----------14b---------------|
D|------8------------------11----------------------------------------------|
A|-------------------------------------------------------------------------|
D|-------------------------------------------------------------------------|
Добавлено: 18.10.2013
Другие материалы по этой песне:
  • Аккорды и текст

Страница создана 18.10.2013
http://primanota.ru/washya/jeers-chords.htm
Привет, Гость.
Предлагаем пройти революционный курс по гитаре.
Подарок от PrimaNota.Ru, забирай!