PrimaNota.ru - самый крупный в мире бесплатный архив песенных текстов, аккордов, табулатур и нот


Washya - Ineptitude - таба

Регистрация Запомнить меня
Войти через:  Facebook Google Twitter Vk Yandex Mail.ru

Washya - Ineptitude - таба

Печатать
Просмотров: 60
-----------------------------------------------------------------------------
                       Ineptitude - Washya
-----------------------------------------------------------------------------
Tuning: Drop C (DAFCGC)
Intro
D|-----------------------------------------|
A|-----------------------------------------|
F|-------8-------8---8-------5-------5---5-|
C|-------8-------8---8-------5-------5---5-|
G|-0-0-0-6-0-0-0-6-0-6-0-0-0-3-0-0-0-3-0-3-|
C|-0-0-0---0-0-0---0---0-0-0---0-0-0---0---|x3

Verse 1
D|-------------------------------------------------------|
A|-------------------------------------------------------|
F|-------------------------------------------------------|
C|-------3-6-5-3-----------3-5-----3---------------------|
G|---6-5---------5-6-3-6-5-----6-5---5-6-3-----5-3-------|
C|-3---------------------------------------5-6-----6-5-3-|

Verse 2
D|-----------------------------------------------------------------|
A|-----------------------------------------------------------------|
F|-------5---------------------------------------------------------|
C|---8-7---8-7-5-----5-8-7-5---------------------------------------|
G|-5-------------7-8---------7-8-5-----7-5-4-----4-7-8-7-5---------|
C|---------------------------------8-7-------7-5-----------7-8-7-5-|

Verse 3 (Final Verse)
D|---------------------------------------------------------------|
A|---------------------------------------------------------------|
F|---------------------------------8-7-5-------------------------|
C|-7-5---7-5---------5-8-7-----6-5-------7-6-5-------------------|
G|-----8-----7-5---7-------5-7-----------------8-7-8-5-----5-----|
C|---------------8-------------------------------------8-7---7-5-|

In between Each Verse Plays
D|------------------------------|
A|------------------------------|
F|------------------------------|
C|------------------------------|
G|-0000-000--0000-000--0000-000-|
C|-0000-000--0000-000--0000-000-|
pm **** ***  **** ***  **** *** X3 

Chorus (play fast)
D|-------------------|---------------------------|
A|-------------------|---------------------------|
F|-9h10-7h9-10p7-9p7-|-9h10-7h9---------10p9p7---|
C|-------------------|----------8---8-7--------9-|
G|-------------------|------------9--------------|
C|-------------------|---------------------------|
 play three times ->       

Guitar Solo 
D|------------------------------/12h15p12h15p12h15p12h15p12h14p12h14~-|
A|-9b-9b-9b-7h9h10/12b-12b-12b~---------------------------------------|
F|--------------------------------------------------------------------|
C|--------------------------------------------------------------------|
G|--------------------------------------------------------------------|
C|--------------------------------------------------------------------|

D|-15----15-12---------------------------------------------------------|
A|----12-------15-12-13-12-10------------------------------------------|
F|----------------------------12-10----14-15---------------------------|
C|----------------------------------12-------14-13-11------------------|
G|----------------------------------------------------12-14-12-11------|
C|----------------------------------------------------------------12~--|
Добавлено: 18.07.2013
Другие материалы по этой песне:
  • Аккорды и текст

Страница создана 18.07.2013
http://primanota.ru/washya/ineptitude-chords.htm
Привет, Гость.
Предлагаем пройти революционный курс по гитаре.
Подарок от PrimaNota.Ru, забирай!