PrimaNota.ru - самый крупный в мире бесплатный архив песенных текстов, аккордов, табулатур и нот


Washya - Guarded - таба

Регистрация Запомнить меня
Войти через:  Facebook Google Twitter Vk Yandex Mail.ru

Washya - Guarded - таба

Печатать
Просмотров: 58
------------------------------------------------------------------------------
           Guarded - Washya 
------------------------------------------------------------------------------
Tuning: Standard (EBGDAE)
Intro
E|----------------------------|
B|----------------------------|
G|----------------------------|
D|-7-99----7-7-9-7-9-7-99-7---|
A|-5-77-9--5-5-7-5-7-5-77-5-7-|
E|------7-------------------5-|

Verses
E|------------------------------|
B|------------------------------|
G|------------------------------|
D|-99-9-7-99-7-9-7-99-7-9-99999-|
A|-77-7-5-77-5-7-5-77-5-7-77777-|
E|------------------------------|

Chorus
E|-----------------------------------|
B|-----------------------------------|
G|-----------------------------------|
D|-9~---7~-------------9-99-7-99-7-9-|
A|-7~---5~---7~---3~---7-77-5-77-5-7-|
E|-----------5~---1~-----------------|
Добавлено: 10.07.2013
Другие материалы по этой песне:
  • Аккорды и текст

Страница создана 10.07.2013
http://primanota.ru/washya/guarded-chords.htm
Привет, Гость.
Предлагаем пройти революционный курс по гитаре.
Подарок от PrimaNota.Ru, забирай!