PrimaNota.ru - самый крупный в мире бесплатный архив песенных текстов, аккордов, табулатур и нот


Washya - Grudge Match - таба

Регистрация Запомнить меня
Войти через:  Facebook Google Twitter Vk Yandex Mail.ru

Washya - Grudge Match - таба

Печатать
Просмотров: 63
-----------------------------------------------------------------------------
                           Grudge Match - Washya
-----------------------------------------------------------------------------
Tuning: Standard (EBGDAE)
Intro
E|---------------------------------|
B|---------------------------------|
G|---------------------------------|
D|-----8---5-----------------555/7-|
A|-----6---3-----7---8---5---333/5-|
E|-000---0---000-5-0-6-0-3-0-------|
PM ***   *   ***   *   *   * 

Verses
E|-----------------------------------------------|
B|-----------------------------------------------|
G|-----------------------------------------------|
D|-----------------------------------------------|
A|-4-------------------------------------5-------|
E|-2-222222222-00-3-0-5-0-6-0-3-0--0-5-6---6-5-3-|
PM   ********* **   *   *   *   *  *  

E|-----------------------------|
B|-----------------------------|
G|-----------------------------|
D|-5555/8888\777---------------|
A|-3333/6666\555-------2-0-----|
E|---------------0-2-3-----3-0-|

Chorus
E|----------------------------------|
B|----------------------------------|
G|----------------------------------|
D|----------------8\7\5---5---------|
A|----7/8---5/7---6\5\3-7-3---3/4/5-|
E|--0-5/6-0-3/5-0-------5---0-1/2/3-|

Guitar solo
E|----------------------------------|
B|--------------------------2-0-----|
G|--------------------3-2-4-----2*~-|
D|-4b*~-----2---4-2-4---------------|
A|------2-4---4---------------------|
E|----------------------------------|

E|-------------------------------------------------------------------|
B|-5p3p2h5p3p2-------------------------------------------------------|
G|-------------5p3p2h5p3p2-------------------------------------------|
D|-------------------------5p3p2h5p3p2-------------------------------|
A|-------------------------------------5p3p2h5p3p2-------------------|
E|-------------------------------------------------5p3p2h5p3p2p0h2b~-|

E|-13b-15b-/12h15p12h15p12h14p12h14-------------------------|
B|-12b-14b--------------------------12h15p12h15p12h14p12h14-|
G|----------------------------------------------------------|
D|----------------------------------------------------------|
A|----------------------------------------------------------|
E|----------------------------------------------------------|

E|-------------------------------------------------------------------------|
B|-------------------------------------------------------------------------|
G|-12h15p12h15p12h14p12h14-------------------------------------------------|
D|-------------------------12h15p12h15p12h14p12h14-------------------------|
A|-------------------------------------------------12h15p12h15p12h14p12h14-|
E|-------------------------------------------------------------------------|

E|--------|
B|--------|
G|--------|
D|--------|
A|--------|
E|-12/14~-|

Verses
E|-----------------------------------------------|
B|-----------------------------------------------|
G|-----------------------------------------------|
D|-----------------------------------------------|
A|-4-------------------------------------5-------|
E|-2-222222222-00-3-0-5-0-6-0-3-0--0-5-6---6-5-3-|
PM   ********* **   *   *   *   *  *  

E|-----------------------------|
B|-----------------------------|
G|-----------------------------|
D|-5555/8888\777---------------|
A|-3333/6666\555-------2-0-----|
E|---------------0-2-3-----3-0-|

Chorus
E|----------------------------------|
B|----------------------------------|
G|----------------------------------|
D|----------------8\7\5---5---------|
A|----7/8---5/7---6\5\3-7-3---3/4/5-|
E|--0-5/6-0-3/5-0-------5---0-1/2/3-|
Добавлено: 03.11.2013
Другие материалы по этой песне:
  • Аккорды и текст

Страница создана 03.11.2013
http://primanota.ru/washya/grudge-match-chords.htm
Привет, Гость.
Предлагаем пройти революционный курс по гитаре.
Подарок от PrimaNota.Ru, забирай!