PrimaNota.ru - самый крупный в мире бесплатный архив песенных текстов, аккордов, табулатур и нот


Washya - Freefall - таба, видео

Регистрация Запомнить меня
Войти через:  Facebook Google Twitter Vk Yandex Mail.ru

Washya - Freefall - таба, видео

Печатать
Просмотров: 62
------------------------------------------------------------------------------
                          Freefall - Washya
------------------------------------------------------------------------------
Tuning: Drop D (EBGDAD)
Intro
E|---------------------------------------------------|
B|---------------------------------------------------|
G|---------------------------------------------------|
D|---------------------------------------------------|
A|----5---3---------------3----5---3---5---3-------3-|
D|-00---0---0-5-0-3-0-3h5---00---0---5---3---0h3h5---|
PM **   *   *   *   *       **   *           * 

Part 2
E|----------------------------|
B|----------------------------|
G|----------------------------|
D|----------------------------|
A|-33333333/66666666-00000000-|
D|-33333333/66666666-00000000-|

Verses
E|---------------------------------------------------|
B|---------------------------------------------------|
G|---------------------------------------------------|
D|---------------------------------------------------|
A|----5---3---6---5-------3----5---3---5---3-------3-|
D|-00---0---0---0---0-3h5---00---0---5---5---0h3h5---|
PM **   *   *   *   *       **   *           * 


Chorus
E|--------------------------------------------------------------|
B|--------------------------------------------------------------|
G|--------------------------------------------------------------|
D|--------------------------------------------------------------|
A|-33333333/66666666/8888888\55555555/3333333-00000000-11111111-|
D|-33333333/66666666/8888888\55555555/3333333-00000000-11111111-|

Part 3
E|---------------------------------------------------|
B|---------------------------------------------------|
G|---------------------------------------------------|
D|---------------------------------------------------|
A|----5---3---------------3----5---3---5---3-------3-|
D|-00---0---0-5-0-3-0-3h5---00---0---5---3---0h3h5---|
PM **   *   *   *   *       **   *           * 

Part 2
E|----------------------------|
B|----------------------------|
G|----------------------------|
D|----------------------------|
A|-33333333/66666666-00000000-|
D|-33333333/66666666-00000000-|

Verses
E|---------------------------------------------------|
B|---------------------------------------------------|
G|---------------------------------------------------|
D|---------------------------------------------------|
A|----5---3---6---5-------3----5---3---5---3-------3-|
D|-00---0---0---0---0-3h5---00---0---5---5---0h3h5---|
PM **   *   *   *   *       **   *           * 

Chorus
E|--------------------------------------------------------------|
B|--------------------------------------------------------------|
G|--------------------------------------------------------------|
D|--------------------------------------------------------------|
A|-33333333/66666666/8888888\55555555/3333333-00000000-11111111-|
D|-33333333/66666666/8888888\55555555/3333333-00000000-11111111-|


Solo
E|--------------------------------------------15p14p12----15p14p12--------|
B|-15p14p12----12h14h15--15p14p12----12h14h15----------14----------12/14~-|
G|----------14--------------------14--------------------------------------|
D|------------------------------------------------------------------------|
A|------------------------------------------------------------------------|
D|------------------------------------------------------------------------|
Добавлено: 13.06.2013
Другие материалы по этой песне:
  • Аккорды и текст

Страница создана 13.06.2013
http://primanota.ru/washya/freefall-chords.htm
Привет, Гость.
Предлагаем пройти революционный курс по гитаре.
Подарок от PrimaNota.Ru, забирай!