PrimaNota.ru - самый крупный в мире бесплатный архив песенных текстов, аккордов, табулатур и нот


Washya - Feeble Being - таба

Регистрация Запомнить меня
Войти через:  Facebook Google Twitter Vk Yandex Mail.ru

Washya - Feeble Being - таба

Печатать
Просмотров: 66
Уроки эстрадного вокала в Санкт-Петербурге
-----------------------------------------------------------------------------
                Feeble Being Solo - Washya
-----------------------------------------------------------------------------
Tuning: Standard (EBGDAE)
E|---------------------------------------12h15p12h15p12h15p12h15p12h15-|
B|-----12-12----14----12----12----14p12~-------------------------------|
G|-/10-------10----10----10----10--------------------------------------|
D|---------------------------------------------------------------------|
A|---------------------------------------------------------------------|
E|---------------------------------------------------------------------|

E|-------------------------------------------------------------|
B|-12h15p12h15p12h15p12h15-------------------------------------|
G|-------------------------15p14p12h15p14p12-------------------|
D|-------------------------------------------15p14p12h15p14p12-|
A|-------------------------------------------------------------|
E|-------------------------------------------------------------|

E|-----------------------------------------------------------|
B|-----------------------------------------------------------|
G|-----------------------------------------------------------|
D|-----------------------------------------------------------|
A|-15p14p12h15p14p12--------------------------11h12----11h12-|
E|-------------------15p14p12h15p14p12\10~-10-------10-------|

E|----------------------------------------------------------14h16----14h16-|
B|----------------------------------------13h15----13h15-15-------15-------|
G|----------------------12h14----12h14-14-------14-------------------------|
D|----11h13----11h13-13-------13-------------------------------------------|
A|-12-------12-------------------------------------------------------------|
E|-------------------------------------------------------------------------|

E|-14h16p14h16p14h17p16p14h17p16p14h16~----16----16----18~-|
B|--------------------------------------15----15----15-----|
G|---------------------------------------------------------|
D|---------------------------------------------------------|
A|---------------------------------------------------------|
E|---------------------------------------------------------|
Добавлено: 01.08.2013
Другие материалы по этой песне:
  • Аккорды и текст

Страница создана 01.08.2013
http://primanota.ru/washya/feeble-being-chords.htm
Привет, Гость.
Предлагаем пройти революционный курс по гитаре.
Подарок от PrimaNota.Ru, забирай!