PrimaNota.ru - самый крупный в мире бесплатный архив песенных текстов, аккордов, табулатур и нот


Washya - Falling Away - таба, видео

Регистрация Запомнить меня
Войти через:  Facebook Google Twitter Vk Yandex Mail.ru

Washya - Falling Away - таба, видео

Печатать
Просмотров: 82
-----------------------------------------------------------------------------
                Falling Away - Washya
-----------------------------------------------------------------------------
Tuning: Standard (EBGDAE)
Intro
E|------------------------------0-|
B|------------------------------0-|
G|-------6-5-3-------4------2-0-2-|
D|-----5-----------5------4-----2-|
A|---2-----------2------5-------0-|
E|-0-----------0----------------0-|x 3

Verses
E|-------------------------------|
B|-------------------------------|
G|-2-----------------------------|
D|-2-222222-2/3-2/3-222222-2/3---|
A|-0-222222-2/3-2/3-222222-2/3-2-|
E|-----------------------------2-|

Main Riff
E|-------------------------|
B|-------------------------|
G|-------------------------|
D|-------------------3-2-5-|
A|-2-----4-----5-----1-0-3-|
E|-0-000-2-222-3-333-------|
PM   ***   ***   *** 

E|------------------------------0-|
B|------------------------------0-|
G|-------6-5-3-------4------2-0-2-|
D|-----5-----------5------4-----2-|
A|---2-----------2------5-------0-|
E|-0-----------0----------------0-|

Verses
E|-------------------------------|
B|-------------------------------|
G|-2-----------------------------|
D|-2-222222-2/3-2/3-222222-2/3---|
A|-0-222222-2/3-2/3-222222-2/3-2-|
E|-----------------------------2-|

Main Riff
E|-------------------------|
B|-------------------------|
G|-------------------------|
D|-------------------3-2-5-|
A|-2-----4-----5-----1-0-3-|
E|-0-000-2-222-3-333-------|
PM   ***   ***   *** 

Guitar Solo
E|----------------------------10-8-7~-|
B|-7-8-10-8-7-8-10-8-7-8-10-8---------|
G|------------------------------------|
D|------------------------------------|
A|------------------------------------|
E|------------------------------------|

SoloStart (slow solo)
E|------------------------------------------------------------------|
B|-16b-18----16b-18--------------------12--------12-----------------|
G|--------17--------17-15h1717p15~-----12--------12-----------------|
D|---------------------------------14b----15-14b----15-13h1515p13~--|
A|------------------------------------------------------------------|
E|------------------------------------------------------------------|

E|------------------------------------10-12-15-13-12-13~-13h15p13----------|
B|-----12--------12----------------12-----------------------------15p13p12-|
G|-14b----12-14b----12-10h1212p10~-----------------------------------------|
D|-14b-------14b-----------------------------------------------------------|
A|-------------------------------------------------------------------------|
E|-------------------------------------------------------------------------|

E|-----------------------------------------------------------------------|
B|-13p12----15-13--------------------------------------------------------|
G|-------14-------14-12h14p12h14p12\10h12p10h12p10\8h10p8h10p8\6h8p6h8p6-|
D|-----------------------------------------------------------------------|
A|-----------------------------------------------------------------------|
E|-----------------------------------------------------------------------|

E|-------------------------------------5p4----5p4-2h4p2h4p2----------------|
B|----------------------------------------------------------2p0------------|
G|-4h6p4h6p4\2h4p2h4p2\0h2p0h2p0h2~-2b-----2b-------------------2p0--------|
D|------------------------------------------------------------------3p2p0--|
A|-------------------------------------------------------------------------|
E|-------------------------------------------------------------------------|

E|-----------|
B|-----------|
G|-----------|
D|-----------|
A|-2p0-------|
E|-----3p2p0-|
Добавлено: 05.11.2013
Другие материалы по этой песне:
  • Аккорды и текст

Страница создана 05.11.2013
http://primanota.ru/washya/falling-away-chords.htm
Привет, Гость.
Предлагаем пройти революционный курс по гитаре.
Подарок от PrimaNota.Ru, забирай!