PrimaNota.ru - самый крупный в мире бесплатный архив песенных текстов, аккордов, табулатур и нот


Washya - Fall From The Sky - таба, видео

Регистрация Запомнить меня
Войти через:  Facebook Google Twitter Vk Yandex Mail.ru

Washya - Fall From The Sky - таба, видео

Печатать
Просмотров: 61
-----------------------------------------------------------------------------
                   Fall From The Sky - Washya
-----------------------------------------------------------------------------
Tuning: Drop C (DAFCGC)
Intro
D|-------------|
A|-------------|
F|-6~-7~-4~/8~-|
C|-------------|
G|-4~-5~-2~/6~-|
C|-------------|

Part 2
D|------------------------------|
A|------------------------------|
F|------444------555------777---|
C|------------------------------|
G|------222------333-5555-555-5-|
C|-0000-----0000--------------5-|
PM ****     ****     ****  

Verses
D|-----------------------------------------|
A|-----------------------------------------|
F|-----------------------------------------|
C|--------5p4-----------------9\7/9--------|
G|------7----------7p4h5------7\5/7--------|
C|-0000-------0000-------0000-------10p8p7-|
PM ****       ****       ****  

Pre Chorus
D|------------------------------------------|
A|------------------------------------------|
F|------------------------------------------|
C|------9\7/9------9\7/9------2h3p2---2-----|
G|------7\5/7------7\5/7------------5---3p2-|
C|-0000-------0000-------0000---------------|
PM ****       ****       **** 

Chorus
D|-----------------------------4-6-7-6-4---4-6-7-6-4------------------------|
A|---4-6-7-6-4---4-6-7-6-4---5-----------5-----------5----------------------|
F|-5-----------5-----------5-----------------------------4-6-7-6-4----------|
C|-----------------------------------------------------5-----------5--------|
G|-------------------------------------------------------------------555/88-|
C|-------------------------------------------------------------------555/88-|
PM * * * * * * * * * * * * * * * * * * * * * * * * * * * * * * * * *  
Добавлено: 19.11.2013
Другие материалы по этой песне:
  • Аккорды и текст

Страница создана 19.11.2013
http://primanota.ru/washya/fall-from-the-sky-chords.htm
Привет, Гость.
Предлагаем пройти революционный курс по гитаре.
Подарок от PrimaNota.Ru, забирай!