PrimaNota.ru - самый крупный в мире бесплатный архив песенных текстов, аккордов, табулатур и нот


Washya - Envita - таба, видео

Регистрация Запомнить меня
Войти через:  Facebook Google Twitter Vk Yandex Mail.ru

Washya - Envita - таба, видео

Печатать
Просмотров: 74
------------------------------------------------------------------------------
                       Envita - Washya
------------------------------------------------------------------------------
Tuning: Standard (EBGDAE)
Intro
E|-----------------------------------------------------|
B|-----------------------------------------------------|
G|-----------------------------------------------------|
D|------------3-2-5-555------------3-2-5-555-----------|
A|-555\3333-3-1-0-3-333-555\3333-3-1-0-3-333-555\333-2-|
E|-333\1111-1-----------333\1111-1-----------333\111-0-|


Verses
E|-----------------------------------------------------------------------|
B|-----------------------------------------------------------------------|
G|-----------------------------------------------------------------------|
D|-----------333/555-----------------------------555/777-----------------|
A|-----1---1-111/333-----1---1-555\333-----1---1-333/555-----1---1-5-4-3-|
E|-1-3---3-----------1-3---3---333\111-1-3---3-----------1-3---3---3-2-1-|
PM * * * * *         * * * * *         * * * * *         * * * * *    

Chorus
E|------------------------------------------------------|
B|------------------------------------------------------|
G|------------------------------------------------------|
D|-----3-2------------------3/5--------------1-------2~-|
A|-5/7-1-0-2-222222-5/7-8\7-1/3-5-555555-2h3---3p2h3----|
E|-3/5-----0-000000-3/5-6\5-----3-333333----------------|
PM           ******               ****** 
Добавлено: 07.06.2013
Другие материалы по этой песне:
  • Аккорды и текст

Страница создана 07.06.2013
http://primanota.ru/washya/envita-chords.htm
Привет, Гость.
Предлагаем пройти революционный курс по гитаре.
Подарок от PrimaNota.Ru, забирай!