PrimaNota.ru - самый крупный в мире бесплатный архив песенных текстов, аккордов, табулатур и нот


Washya - Drug Policy - таба, видео

Регистрация Запомнить меня
Войти через:  Facebook Google Twitter Vk Yandex Mail.ru

Washya - Drug Policy - таба, видео

Печатать
Просмотров: 61
Уроки эстрадного вокала в Санкт-Петербурге
-----------------------------------------------------------------------------
                          Drug Policy - Washya
-----------------------------------------------------------------------------
Tuning: Drop D (DADGBE)
Intro/Chorus
E|------------------------------|-------------------------------------------|
B|------------------------------|-------------------------------------------|
G|-5/777-5-5/7-7-7--------------|-2-3--7-77-77-7-555-7-77-77/999-7-77-77-77-|
D|-5/777-5-5/7-7-7-555-11/3-3-3-|-2-3--7-77-77-7-555-7-77-77/999-7-77-77-77-|
A|-3/555-3-3/5-5-5-555-11/3-3-3-|-0-1--5-55-55-5-333-5-55-55/777-5-55-55-55-|
D|-----------------555-11/3-3-3-|-------------------------------------------|

Just before verses
E|-----|
B|-----|
G|-3-2-|
D|-3-2-|
A|-1-0-|
D|-----|

Verses
E|--------------------------------------------------------------------|
B|----------------------8---------------------------------------------|
G|-------------10-9-7-----9---------------------------------------5-7-|
D|--------------------9-----------------10-7-9-10-9---------------5-7-|
A|--------------------------------------------------7-------------3-5-|
D|-000-00-0-00--------------000-00-0-00---------------000-00-0-00-----|
PM *** ** * **              *** ** * **               *** ** * ** 

Intro/Chorus
E|------------------------------|-------------------------------------------|
B|------------------------------|-------------------------------------------|
G|-5/777-5-5/7-7-7--------------|-2-3--7-77-77-7-555-7-77-77/999-7-77-77-77-|
D|-5/777-5-5/7-7-7-555-11/3-3-3-|-2-3--7-77-77-7-555-7-77-77/999-7-77-77-77-|
A|-3/555-3-3/5-5-5-555-11/3-3-3-|-0-1--5-55-55-5-333-5-55-55/777-5-55-55-55-|
D|-----------------555-11/3-3-3-|-------------------------------------------|

Just before verses
E|-----|
B|-----|
G|-3-2-|
D|-3-2-|
A|-1-0-|
D|-----|

Verses
E|--------------------------------------------------------------------|
B|----------------------8---------------------------------------------|
G|-------------10-9-7-----9---------------------------------------5-7-|
D|--------------------9-----------------10-7-9-10-9---------------5-7-|
A|--------------------------------------------------7-------------3-5-|
D|-000-00-0-00--------------000-00-0-00---------------000-00-0-00-----|
PM *** ** * **              *** ** * **               *** ** * ** 

Just Before Solo
E|-----------------------------------------------------------|
B|-----------------------------------------------------------|
G|-----------------------------------------------------------|
D|-----------------------------------------------------6h8h9-|
A|-----------------------------------------------4h6h7-------|
D|-0-000-000-0-000-000-0-000-000-0-000-000-2h4h5-------------|
PM * *** *** * *** *** * *** *** * *** *** 

Lead/Solo
E|---------------------------15p13p12h15p13p12----------------------------|
B|------7------12b-12b-10-12-------------------14p13p12h14p13p12----------|
G|-/7-8---8-10---------------------------------------------------13p12p11-|
D|------------------------------------------------------------------------|
A|------------------------------------------------------------------------|
D|------------------------------------------------------------------------|

E|-------------------------------------------------------------------------|
B|-------------------------------------------------------------------------|
G|-13p12p11----------------------------------------------------------------|
D|----------14p12p11h14p12p11-------12p11p10----11p10h12p11p10-------------|
A|----------------------------12p11----------12----------------12----------|
D|----------------------------------------------------------------13p12p11-|

E|-----------------------------------------------------------------------|
B|-----------------------------------------------------------------------|
G|-----------------------------------------------------------------------|
D|-------------12----------------12----------------12--------------------|
A|----11h12h13----13p12p11h12h13----13p12p11h12h13----13p12p10-----------|
D|-12----------------------------------------------------------12h10p12~-|

Intro/Chorus
E|------------------------------|-------------------------------------------|
B|------------------------------|-------------------------------------------|
G|-5/777-5-5/7-7-7--------------|-2-3--7-77-77-7-555-7-77-77/999-7-77-77-77-|
D|-5/777-5-5/7-7-7-555-11/3-3-3-|-2-3--7-77-77-7-555-7-77-77/999-7-77-77-77-|
A|-3/555-3-3/5-5-5-555-11/3-3-3-|-0-1--5-55-55-5-333-5-55-55/777-5-55-55-55-|
D|-----------------555-11/3-3-3-|-------------------------------------------|

Just before verses
E|-----|
B|-----|
G|-3-2-|
D|-3-2-|
A|-1-0-|
D|-----|

Verses
E|--------------------------------------------------------------------|
B|----------------------8---------------------------------------------|
G|-------------10-9-7-----9---------------------------------------5-7-|
D|--------------------9-----------------10-7-9-10-9---------------5-7-|
A|--------------------------------------------------7-------------3-5-|
D|-000-00-0-00--------------000-00-0-00---------------000-00-0-00-----|
PM *** ** * **              *** ** * **               *** ** * ** 

Intro/Chorus
E|------------------------------|-------------------------------------------|
B|------------------------------|-------------------------------------------|
G|-5/777-5-5/7-7-7--------------|-2-3--7-77-77-7-555-7-77-77/999-7-77-77-77-|
D|-5/777-5-5/7-7-7-555-11/3-3-3-|-2-3--7-77-77-7-555-7-77-77/999-7-77-77-77-|
A|-3/555-3-3/5-5-5-555-11/3-3-3-|-0-1--5-55-55-5-333-5-55-55/777-5-55-55-55-|
D|-----------------555-11/3-3-3-|-------------------------------------------|

Just before verses
E|-----|
B|-----|
G|-3-2-|
D|-3-2-|
A|-1-0-|
D|-----|

Verses
E|--------------------------------------------------------------------|
B|----------------------8---------------------------------------------|
G|-------------10-9-7-----9---------------------------------------5-7-|
D|--------------------9-----------------10-7-9-10-9---------------5-7-|
A|--------------------------------------------------7-------------3-5-|
D|-000-00-0-00--------------000-00-0-00---------------000-00-0-00-----|
PM *** ** * **              *** ** * **               *** ** * ** 
Добавлено: 18.09.2013
Другие материалы по этой песне:
  • Аккорды и текст

Страница создана 18.09.2013
http://primanota.ru/washya/drug-policy-chords.htm
Привет, Гость.
Предлагаем пройти революционный курс по гитаре.
Подарок от PrimaNota.Ru, забирай!