PrimaNota.ru - самый крупный в мире бесплатный архив песенных текстов, аккордов, табулатур и нот


Washya - Drug Haste - таба

Регистрация Запомнить меня
Войти через:  Facebook Google Twitter Vk Yandex Mail.ru

Washya - Drug Haste - таба

Печатать
Просмотров: 56
-----------------------------------------------------------------------------
                        Drug Haste - Washya
-----------------------------------------------------------------------------
Tuning: Drop C (DAFCGC)
Intro
D|------------------------------------------------|
A|------------------------------------------------|
F|--------------2---------------------------------|
C|----------2-3------------2-3------3-------------|
G|------2-3------------2-3-----3------3-2---------|
C|-00-3-----------00-3-----------00-------0-3-2-0-|
pm .. . . . . . . .. . . . . . . .. . . . . . . .

Verses pt 1
D|-------------------------------------|
A|-------6-----------------4-----------|
F|-----7---7-------------5---5---------|
C|---5-------5---------3-------3-------|
G|-------------3-----------------1-----|
C|-0--------------5b-0-------------3b--|
pm .                 . 

Verses pt 2 (heavier)
D|---------------------------------------------|
A|---------------------------------------------|
F|---------------------------------------------|
C|---------------------------------------------|
G|-1111-0-000-00-1111-0-000-1-0-000-1111-0-0-3-|
C|-1111-0-000-00-1111-0-000-1-0-000-1111-0-0-3-|

Chorus
D|----------------------------------------------------------------|
A|----------------------------------------------------------------|
F|----------------------------------------------------------------|
C|---/15~\-----/18~\-------------12-------9-----------------------|
G|-00------111-------221-/12~-12----12-11---8-7---7-----3-2-------|
C|-00------111-------221------------------------9---6-5-----2-1-0-|
pm                            ........... . . . . . . . . . . . .   

Interlude (play very fast)
D|------------------------------------|
A|------------------------------------|
F|------------------------------------|
C|----9-------------------------------|
G|-/9---9-8-7---7-6-------3-2---1-----|
C|------------9-----6-5-4-----2---1-0-|
pm  . . . . . . . . . . . . . . . . .  
Добавлено: 25.08.2013
Другие материалы по этой песне:
  • Аккорды и текст

Страница создана 25.08.2013
http://primanota.ru/washya/drug-haste-chords.htm
Привет, Гость.
Предлагаем пройти революционный курс по гитаре.
Подарок от PrimaNota.Ru, забирай!