PrimaNota.ru - самый крупный в мире бесплатный архив песенных текстов, аккордов, табулатур и нот


Washya - Drone - таба, видео

Регистрация Запомнить меня
Войти через:  Facebook Google Twitter Vk Yandex Mail.ru

Washya - Drone - таба, видео

Печатать
Просмотров: 117
Уроки эстрадного вокала в Санкт-Петербурге
-----------------------------------------------------------------------------
                             Drone - Washya
-----------------------------------------------------------------------------

Tabbed by:
Email:

Tuning: Standard (ebgDAE)
Intro
e|--------------------------------------------------------------------|
B|--------------------------------------------------------------------|
G|-------------------------------4-0-2-0---0---0---0-2----------------|
D|-----4-0-2-0-------4-0-2/4---2---------2---2---2---------4-2-0------|
A|---2---------2---2---------0---------------------------2-------2-2--|
E|-0-------------0-------------------------------------0---------0-0--|


Verses
e|---------------------------------------------------------------------|
B|---------------------------------------------------------------------|
G|---------------------------------------------------------------------|
D|-----4-0-2-4---------4-2-4-2-0-------0---------------0---------------|
A|---2---------2-2---2-----------2---2---2-0-2-0-2---4---4-4-2-0---0-2-|
E|-0---------------0---------------0---------------2-------------2---0-|


Chorus
e|-----------------------------------|
B|-----------------------------------|
G|-----------------------------------|
D|-4-4-7-7---------4-4-7-7-----------|
A|-2-2-5-5-7-7-7/9-2-2-5-5-7-9-7-5-2-|
E|---------5-5-5/7---------5-7-5-3-0-|

Добавлено: 04.09.2013
Другие материалы по этой песне:
  • Аккорды и текст

Страница создана 04.09.2013
http://primanota.ru/washya/drone-chords.htm
Привет, Гость.
Предлагаем пройти революционный курс по гитаре.
Подарок от PrimaNota.Ru, забирай!