PrimaNota.ru - самый крупный в мире бесплатный архив песенных текстов, аккордов, табулатур и нот


Washya - Distinction - таба, видео

Регистрация Запомнить меня
Войти через:  Facebook Google Twitter Vk Yandex Mail.ru

Washya - Distinction - таба, видео

Печатать
Просмотров: 65
-----------------------------------------------------------------------------
                     Distinction - Washya
-----------------------------------------------------------------------------
Tuning: D Standard (DAFCGD)
Intro
D|------------------------|---------------|
A|------------------------|---------------|
F|---------------------3*-|---------------|
C|-----3p2-----3p2h3h5----|---------------|
G|-3h5-----3h5------------|-2-222-5-4-3-2-|
D|------------------------|-0-000-3-2-1-0-|
                        x3

Verses
D|-------------------------------------------------------------------------|
A|-------------------------------------------------------------------------|
F|---------4*-----------------------5*---------5*-----------------------8*-|
C|-------2-----------------------------------3-----------------------------|
G|---2/5------5-4-3---------3-4-5-4------3/6------8-7-6-----------6-8-6----|
D|-0----------------5-3-3-5------------0----------------8-6-6-7-8----------|
PM *                * * * *            *                * * * * *

D|-----------------|
A|-----------------|
F|-----------------|
C|-----------------|
G|-9-8-7---9-8-7-2-|
D|-------9-7-6-5-0-|
PM         * * * *

Chorus
D|--------------------------------------------------------------------|
A|--------------------------------------------------------------------|
F|--------------------------------------------------------------------|
C|------------------5-7---------------7-6---------------------5-4-----|
G|-222-222-222-3-4--3-5-5-222-222-222-5-4-8-7-222-222-222-5-7-3-2-3-2-|
D|-000-000-000-1-2------3-000-000-000-----6-5-000-000-000-3-5-----1-0-|
PM *** *** ***            *** *** ***         *** *** ***

Solo
D|----8-----11-----13------------------------13-15----14-16b-----|
A|-/7---/10----/12-------8-----11-----13-/12-------13--------15~-|
F|--------------------/7---/10----/12----------------------------|
C|---------------------------------------------------------------|
G|---------------------------------------------------------------|
D|---------------------------------------------------------------|

D|---------14h17p14----14h17p14----14h17p14----14p12-------14p12-------|
A|-/15~-15----------15----------15----------15-------14h15-------14h15-|
F|---------------------------------------------------------------------|
C|---------------------------------------------------------------------|
G|---------------------------------------------------------------------|
D|---------------------------------------------------------------------|

D|--14p12-------13p12----------15----------14p12----------12----------15-|
A|--------12h14-------15p13p12----13p12h13-------12h15p13----15p13p12----|
F|-----------------------------------------------------------------------|
C|-----------------------------------------------------------------------|
G|-----------------------------------------------------------------------|
D|-----------------------------------------------------------------------|

D|-------12-----------------------------------------------------------------|
A|-12h15----13h15p12----13p12-----------------------------------------------|
F|-------------------15----------13p12h15p13p12-------12-------------13-----|
C|----------------------------15----------------15p13----14h15p14p12--------|
G|--------------------------------------------------------------------------|
D|----------------------------------------------------------------------12~-|

D|--------------------------------------------------------------------------|
A|--------------------------------------------------------------------------|
F|--------------------------------------------------------------------------|
C|-------------------------------------------------12h13h14h15p12h13h14h15--|
G|-------------------------13h14h15h16p13h14h15h16--------------------------|
D|-12h13h14h15p12h13h14h15--------------------------------------------------|
PM************************************************
                                                     
D|-------------------------------15----15----15-----|----------17-------|
A|-------------------------------15----15----15-----|----16h18----18p16-|
F|-14h15h16h17p14h15h16h17-17-17----17----17----17~-|-17----------------|
C|--------------------------------------------------|-------------------|
G|--------------------------------------------------|-------------------|
D|----------------------------------------------------------------------|


D|----------18----------------18-------|-18b-22b~~~-|
A|----17h19----19p17----17h19----19p17-|-----20b~~~-|
F|-18----------------18----------------|------------|
C|-------------------------------------|------------|
G|-------------------------------------|------------|
D|-------------------------------------|------------|
Добавлено: 12.07.2013
Другие материалы по этой песне:
  • Аккорды и текст

Страница создана 12.07.2013
http://primanota.ru/washya/distinction-chords.htm
Привет, Гость.
Предлагаем пройти революционный курс по гитаре.
Подарок от PrimaNota.Ru, забирай!