PrimaNota.ru - самый крупный в мире бесплатный архив песенных текстов, аккордов, табулатур и нот


Washya - Devour Me - таба, видео

Регистрация Запомнить меня
Войти через:  Facebook Google Twitter Vk Yandex Mail.ru

Washya - Devour Me - таба, видео

Печатать
Просмотров: 81
-------------------------------------------------------------------------------
                           Devour Me - Washya
-------------------------------------------------------------------------------
Tuning: Drop B (BF#BEG#C#)
Intro
B|-----------------------------------------------|
F#|----------------------------------------------|
B|-----------------------------------------------|
E|-----------------------------------------------|
G#|-0000-2-4-2-1-2-0000-1-3-1-0-1-0000-2-4-2-1-2-|
C#|-0000-2-4-2-1-2-0000-1-3-1-0-1-0000-2-4-2-1-2-|
pm  ....           ....           .... 

Verses
B|----------------------------------------|
F#|---------------------------------------|
B|----------------------------------------|
E|--0h3p2p0h2p0---2-----------4-----------|
G#|-------------3---3p2p0-2h3---3p2p0-3-1-|
C#|-----------------------------------3-1-|
pm  ........... . . ..... ... . .....     

Chorus
B|------------------------------------------------------------|
F#|-----------------------------------------------------------|
B|--777-555-777-555-333-----101010-888-101010-888-666---------|
E|--xxx-xxx-xxx-xxx-xxx-----xxxxxx-xxx-xxxxxx-xxx-xxx---------|
G#|-555-333-555-333-111-333-8-8-8--666-8-8-8--666-444-666-1-3-|
C#|---------------------333---------------------------666-1-3-|
pm                      ...                           ... . . 

Interlude (palm muted play fast)
B|------------------------------------------------|
F#|-----------------------------------------------|
B|------------------------------------------------|
E|------------2---4-----------------4-----2-------|
G#|-------2-3---3---3-----0-4-3-2-3---2-3---------|
C#|-0-4-3-------------1-0-0-4-3-------------4-3-1-|
pm  . . . . . . . . . . . . . . . . . . . . . . . 
Добавлено: 31.07.2013
Другие материалы по этой песне:
  • Аккорды и текст

Страница создана 31.07.2013
http://primanota.ru/washya/devour-me-chords.htm
Привет, Гость.
Предлагаем пройти революционный курс по гитаре.
Подарок от PrimaNota.Ru, забирай!