PrimaNota.ru - самый крупный в мире бесплатный архив песенных текстов, аккордов, табулатур и нот


Washya - De Winter - таба, видео

Регистрация Запомнить меня
Войти через:  Facebook Google Twitter Vk Yandex Mail.ru

Washya - De Winter - таба, видео

Печатать
Просмотров: 58
-----------------------------------------------------------------------------
                          De Winter - Washya
-----------------------------------------------------------------------------
Tuning: Drop D (EBGDAD) 
Intro
E|----------------------------|
B|----------------------------|
G|----------------------------|
D|----------------------------|
A|----------------------------|
E|-3-3333/5-5555/6-6666-5h6p5-|
PM * **** * **** * **** 

Part 2 (Chorus, Main Riff, play very fast VERY Heavy Palm mute)
E|--------------------------------------------------------------------------|
B|--------------------------------------------------------------------------|
G|--------------------------------------------------------------------------|
D|--------------------------------------------------------------------4-3-2-|
A|------3---5---6---5---3---5---3---5555-5555-3h5-3---5---6---5---3---2-1-0-|
D|-//xx-3-0-5-0-6-0-5-0-3-0-5-0-3-0-5555-5555-3h5-3-0-5-0-6-0-5-0-3-0-------|
PM        *   *   *   *   *   *   *                 *   *   *   *   *

E|------------------------------------------------------------------------|
B|------------------------------------------------------------------------|
G|------------------------------------------------------------------------|
D|-----------------------------3333-3333-4\3------------------------------|
A|-1---3---4---3---1---3---4---1111-1111-2\1-2---4---5---4---2---4---2222-|
D|-1-0-3-0-4-0-3-0-1-0-3-0-4-0---------------2-0-4-0-5-0-4-0-2-0-4-0-2222-|
PM   *   *   *   *   *   *   *                 *   *   *   *   *   * 

E|------------|
B|------------|
G|------------|
D|------------|
A|-2222---1/3-|
D|-2222-0-1/3-|
PM      * 

Verses (Also heavy Palm Mute)
E|-----------------------------------------------------------------------|
B|-----------------------------------------------------------------------|
G|-----------------------------------------------------------------------|
D|-----------------------------------------------------------------------|
A|-----------------------------4/5\4---------------------5555-5555-4/5\4-|
D|-0-0-0-0-0-0-0-0-0-0-0-0-0-0-4/5\4-0-0-0-0-0-0-0-0-0-0-5555-5555-4/5\4-|
PM * * * * * * * * * * * * * *       * * * * * * * * * * 

Добавлено: 25.11.2013
Другие материалы по этой песне:
  • Аккорды и текст

Страница создана 25.11.2013
http://primanota.ru/washya/de-winter-chords.htm
Привет, Гость.
Предлагаем пройти революционный курс по гитаре.
Подарок от PrimaNota.Ru, забирай!