PrimaNota.ru - самый крупный в мире бесплатный архив песенных текстов, аккордов, табулатур и нот


Washya - Cybernetic Enhancment - таба

Регистрация Запомнить меня
Войти через:  Facebook Google Twitter Vk Yandex Mail.ru

Washya - Cybernetic Enhancment - таба

Печатать
Просмотров: 53
-------------------------------------------------------------------------------
                   Cybernetic Enhancement - Washya 
-------------------------------------------------------------------------------


Intro
D|------------------------------------------------------------------|
A|------------------------------------------------------------------|
F|------------------------------------------------------------------|
C|------------------------------0-----------------------------------|
G|--------------------------1-2-------1-2-1-------------------------|
C|-000-1-2-1--000-1-2-1-000-------000-------000-1-2-1-000-1-2-1-000-|
pm ...        ...       ...       ...       ...       ...       ... 

Verses
D|-----------------------------------------------------------------|
A|-----------------------------------------------------------------|
F|-----------------------------------------------------------------|
C|-----------------------------------------------------------------|
G|------------------------------------------3----------------------|
C|-000-1-0-1--000-1-0-1--000-1-0-1--000-2-1---000-1-2-1--000-0-0-0-|
pm ...   .    ...   .    ...   .    ...       ...        ... . . . 

Chorus
D|-------------------------------------------------------------------------|
A|-------------------------------------------------------------------------|
F|-------------------------------------------------------------------------|
C|----------------------------------------------------4~-------------------|
G|-00-1-0-0-1-0-0-1111--00-1-0-0-122223333-00-2-1-0-2----0000-2-1----------|
C|-00-1-0-0-1-0-0-1111--00-1-0-0-122223333-00-2-1-0-2----0000-----2-1-2-1--|
pm ..   . .   . .       ..   . .           ..     .      ....     . . . . 
Добавлено: 06.09.2013
Другие материалы по этой песне:
  • Аккорды и текст

Страница создана 06.09.2013
http://primanota.ru/washya/cybernetic-enhancment-chords.htm
Привет, Гость.
Предлагаем пройти революционный курс по гитаре.
Подарок от PrimaNota.Ru, забирай!