PrimaNota.ru - самый крупный в мире бесплатный архив песенных текстов, аккордов, табулатур и нот


Washya - Crawling - таба, видео

Регистрация Запомнить меня
Войти через:  Facebook Google Twitter Vk Yandex Mail.ru

Washya - Crawling - таба, видео

Печатать
Просмотров: 66
-------------------------------------------------------------------------------
                           Crawling - Washya
-------------------------------------------------------------------------------
Tuning: Drop D (DADGBE)
Intro
E|----------------------------------------------------------------|
B|----------------------------------------------------------------|
G|----------------------------------------------------------------|
D|-----4-----5-----3-----5p4p2-------5*-----4*-----2*-------------|
A|-----------------------------4-222----222----222----222-5-4-2-0-|
D|-222---222---222---222-------4-222----222----222----222-5-4-2-0-|
PM ...   ...   ...   ...         ...    ...    ...    ... . . . . 

Verses
e|-------------------------------------------------|
b|-------------------------------------------------|
g|-------------------------------------------------|
D|-----------5-----------7-----------8-------------|
A|-----3-----3-----5-----5-----6-----6-----6-5-3-0-|
D|-000-3-000---000-5-000---000-6-000---000-6-5-3-0-|
PM ...   ...   ...   ...   ...   ...   ... 

Chorus
e|--------------------------------------------------------------------------|
b|--------------------------------------------------------------------------|
g|--------------------------------------------------------------------------|
D|-----------------444-4-7-----------------------------5555-5-5-5-----------|
A|-000-0-0-2-3-0-2-222-2-5-7777777-44-4-4-4-22-2-2-2-2-3333-3-3-3---3p2p0h2-|
D|-000-0-0-2-3-0-2---------7777777-44-4-4-4-22-2-2-2-2------------0-3p2p0h2-|
PM ... . .                 .......          .. . . . .              . . . .  
Добавлено: 11.07.2013
Другие материалы по этой песне:
  • Аккорды и текст

Страница создана 11.07.2013
http://primanota.ru/washya/crawling-chords.htm
Привет, Гость.
Предлагаем пройти революционный курс по гитаре.
Подарок от PrimaNota.Ru, забирай!