PrimaNota.ru - самый крупный в мире бесплатный архив песенных текстов, аккордов, табулатур и нот


Washya - Cracker - таба, видео

Регистрация Запомнить меня
Войти через:  Facebook Google Twitter Vk Yandex Mail.ru

Washya - Cracker - таба, видео

Печатать
Просмотров: 77
-----------------------------------------------------------------------------
               Cracker - Washya
-----------------------------------------------------------------------------
Tuning: Standard (EBGDAE)
intro
E|-------------------------------------------------------------------|
B|-------------------------------------------------------------------|
G|-3-333-------------------77-7-7------3-333-------------------5-555-|
D|-3-333-xx-5-555-xx-3-333-77-7-7-x-xx-3-333-xx-5-555-xx-3-333-5-555-|
A|-1-111-xx-5-555-xx-3-333-55-5-5-x-xx-1-111-xx-5-555-xx-3-333-3-333-|
E|-------xx-3-333-xx-1-111--------x-xx-------xx-3-333-xx-1-111-------|x2

Verses
E|--------------------------------------------|
B|--------------------------------------------|
G|-3-33-------------------3-33----------------|
D|-3-33-5-55-333---6---5~-3-33-2-222---5---4~-|
A|-1-11-5-55-333-3---3----1-11-2-222-2---2----|
E|------3-33-111---------------0-000----------|

Chorus
E|----------------------------------------------------------------|
B|----------------------------------------------------------------|
G|-3-3333---------------7-7777\3-3333----------------------5-5555-|
D|-3-3333-5-5555-3-3333-7-7777\3-3333-5-5555-7-7777-3-3333-5-5555-|
A|-1-1111-5-5555-3-3333-5-5555\1-1111-5-5555-7-7777-3-3333-3-3333-|
E|--------3-3333-1-1111---------------3-3333-5-5555-1-1111--------|

Lead
E|------------------------------------------------|
B|------------------------------------------------|
G|-----7------------------------------------------|
D|-4h5-----7b-7\6-7\6-7\6-4-----------------------|
A|-------5------------------6-6b-6p4-6p4-6p4------|
E|-------------------------------------------2-2~-|x2
Добавлено: 04.10.2013
Другие материалы по этой песне:
  • Аккорды и текст

Страница создана 04.10.2013
http://primanota.ru/washya/cracker-chords.htm
Привет, Гость.
Предлагаем пройти революционный курс по гитаре.
Подарок от PrimaNota.Ru, забирай!